Oops, an error
Loading. Please wait.

Nadie bass

19 views 1 this week
no commentswrite comment
1 2 3 4 5
3 more votes to show rating
add to favorites
×
Save as Personal and add changes to this tab that will be seen only by you. Learn more ›
×
You can save this tab as Personal to edit and correct it or add notes. All changes will be seen only by you. Learn more »
launch autoscroll
font size
0
reset
guitar tuner
edit
Autoscroll
slow
fast
+/-
esc
set tempo
stop
Aqui les dejo la tablatura para bajo
de nadie
NOTA: en el solo se toca la tab del coro

Si todo sucedió,
tan rápido y distante
que no lo vi venir
y no pude apartarme
La lluvia se quedó,
dormida en los cristales
y cuando despertó
donde dormías tu,
ya no quedaba nadie

G-----------------------------------------
D-----------------------------------------
A--7-7-7-7-7-----------------------0-0-0--
E------------5-5-5-5-5-2-2-2-7-7-7--------

G-----------------------------------------
D-----------------------------------------
A--7-7-7-7-7-----------------------0-0-0--
E------------5-5-5-5-5-2-2-2-7-7-7--------

Y cada solución se vuelve desastrosa
Y cada dirección nos lleva a otra derrota
Yo sigo en esta casa,
entre cuatro paredes que hoy se desmoronan
(que hoy se desmoronan)

G---------------------------------------------
D---------------------------------------------
A--7-7-7-7-7-----------0-0-0-------2-2-2-2-2--
E------------2-2-2-2-2-------2-2-2------------


Nadieeee si no eres tu no es nadie
Nadieeee sin ti no soy de nadie

G---------------------------------------
D---------------------------------------
A----------------------4-4-4-4----------
E--5-5-5-5-5-6-7-7-7-7---------2-2-2-2--

G-------------------------------------
D----------------------2-2-2-2-2-2-2--
A-------------------------------------
E--5-5-5-5-5-6-7-7-7-7----------------


Y te salí a buscar,
por todos esos bares
donde la sobriedad
resulta inalcanzabl
Donde la soledad
se mezcla con ginebra
y nunca te encontré,
tal vez me equivoqué
de cuento y de princesa

G-----------------------------------------
D-----------------------------------------
A--7-7-7-7-7-----------------------0-0-0--
E------------5-5-5-5-5-2-2-2-7-7-7--------

G-----------------------------------------
D-----------------------------------------
A--7-7-7-7-7-----------------------0-0-0--
E------------5-5-5-5-5-2-2-2-7-7-7--------

Y cada solución se vuelve desastrosa
Y cada dirección nos lleva a otra derrota
Yo sigo en esta casa,
entre cuatro paredes que hoy se desmoronan
(que hoy se desmoronan)

G---------------------------------------------
D---------------------------------------------
A--7-7-7-7-7-----------0-0-0-------2-2-2-2-2--
E------------2-2-2-2-2-------2-2-2------------

Nadieeee si no eres tu no es nadie
Nadieeee sin ti no soy de nadie

G---------------------------------------
D---------------------------------------
A----------------------4-4-4-4----------
E--5-5-5-5-5-6-7-7-7-7---------2-2-2-2--

G-------------------------------------
D----------------------2-2-2-2-2-2-2--
A-------------------------------------
E--5-5-5-5-5-6-7-7-7-7----------------


Nadieeee si no eres tu no es nadie
(si no eres tuuuu no eres tuuuu)
Nadieeee (nadieeee) si no eres tu no es nadie
(si no eres tuuuu no eres tuuu
Nadieeee sin ti no soy de nadie
sin ti no soy de nadie

G---------------------------------------
D---------------------------------------
A----------------------4-4-4-4----------
E--5-5-5-5-5-6-7-7-7-7---------2-2-2-2--

G---------------------------------------
D----------------------2-2-2-2-2-2-2----
A------------------------------------7--
E--5-5-5-5-5-6-7-7-7-7------------------

            
            
Suggest correction
Creating personal tab
Creating personal tab
You can edit any tab online and save it as your Personal.

You can edit, replace or remove any tab part or add personal notes – all changes will be seen only by you.

Personal tabs can be accessed anytime from any device, even offline.
Learn more »
Give kudos to tab author, rate the tab!
1 2 3 4 5
comments
print report bad tab
guest
Wanna post a correction for this tab? Suggest correction