Oops, an error
Loading. Please wait.

Black Machine Tab

49 views 6 this week
no commentswrite comment
1 2 3 4 5
2 more votes to show rating
add to favorites
launch autoscroll
font size
0
reset
how to read this tab
guitar tuner
Autoscroll
slow
fast
+/-
esc
set tempo
stop
Help us to improve Ultimate-Guitar.com Take our survey!
×
Author
Difficulty
intermediate
Transcribed By: Michael Andersen / Gjoenge

[INTRO]

   * *   * *
e|-----------------------------------------|
B|-----------------------------------------|
G|-----9-----3--------------------5-5-4----|
D|-----9-----5--------5-5-5-5\4---5-5-4----|
A|-----7-----5--------5-5-5-5\4---3-3-2----|
E|-0-0---0-2-3--------3-3-3-3\2-0----------|

Intro Solo
e|------------------------------|
B|------------------------------|
G|-14b---12h14p12-11h12p11-9~---|
D|------------------------------|
A|------------------------------|
E|------------------------------|

e|---------------------------------------------------------------------------|
B|-------------12h15p12------------------------------------------------------|
G|-14b--14b~------------14h16p14-12h14p14-11h12p11-9~---9-11-11b½-11br½-9----|
D|------------------------------------------------------------------------10-|
A|---------------------------------------------------------------------------|
E|---------------------------------------------------------------------------|

e|----------------------------------------------------------------------------------------------|
B|------------------------------------------------------12-15p13p12-15p13p12-15p13p12-15p13p12~-|
G|---------------------------------------------------14-----------------------------------------|
D|-12b--12b~--14-12-----------------9-10p12h10-9-10---------------------------------------------|
A|------------------14-10--12-10-12-------------------------------------------------------------|
E|----------------------------------------------------------------------------------------------|

[VERSE]

   *               * *       *
e|----------------------------------|
B|----------------------------------|
G|----9-----9\----------------------|
D|----9-----9\-7-------9-------12---|
A|----7-----7\-7-------9---9---12---|
E|-0-----------5---5-7-8---8-7-10---|

[CHORUS]

   *    * *     *
e|------------------------------------------2--|
B|------------------------------------------3--|
G|----9-----3------------------5-5--4---4-4-2--|
D|----9-----5-----5-5----------5-5--4---4-4-0--|
A|----7-----5-----5-5----------3-3--2---2-2----|
E|-0----0-2-3---3-3-3---3-2-0------------------|

[SOLO]

This first solo part runs ontop of the Verse riff

e|---------------------------------------------------------------12-15-14-|
B|--------------------------------------------12-13~----12-13-15----------|
G|-------------------------12h14p12-11h12~-14-----------------------------|
D|-14b--14b--14br-12-14~--------------------------------------------------|
A|------------------------------------------------------------------------|
E|------------------------------------------------------------------------|

e|-12-15-14---------------------------------------------|---------------------------------------------|
B|-----------13-12--------------------------------------|------------------13-12----------------------|
G|------------------12-11-------------------------------|------11-12-11-12-------14-14b--14b--14b~----|
D|-------------------------10-9---7---------------------|-/14-----------------------------------------|
A|------------------------------7---10-9-10h12p10-9h10--|---------------------------------------------|
E|------------------------------------------------------|---------------------------------------------|

e|---------------------------------------------|-----------------------------------------|
B|-12------------------------------------------|-----------------------------------------|
G|----12----12----11---------------------------|-----------------------------------------|
D|-------14----12----10~-----9-------12-10-9---|-----------------------9----9-10-9-10-12-|
A|-----------------------------12-10-----------|----9-10-9-10-12-10-12---12--------------|
E|---------------------------------------------|-12--------------------------------------|

e|-------------------------------------------------|------------------------------------12-14-15-|
B|------------------12-13--12h13p12----12----------|------------------12h13p12----12-13----------|
G|-9-11-12-11-12-14-----------------14----14-12-11-|-14b-14b-14b~--------------14----------------|
D|-------------------------------------------------|---------------------------------------------|
A|-------------------------------------------------|---------------------------------------------|
E|-------------------------------------------------|---------------------------------------------|

e|-14-15-17--14-15-17-17b~-17b~----12p15h12------------------------------|
B|------------------------------------------15-15b----10----10----10-----|
G|-------------------------------------------------12b---12b---12b---9~--|
D|-----------------------------------------------------------------------|
A|-----------------------------------------------------------------------|
E|-----------------------------------------------------------------------|

e|------------------------------------------------------------------------|
B|---------10-12-10-----15b--15b-----------15-12-------------------12-13--|
G|----9-12----------12------------14br-14b-------14-12-14--12h14-14-------|
D|-12---------------------------------------------------------------------|
A|------------------------------------------------------------------------|
E|------------------------------------------------------------------------|

e|----------14----14----15-14h15p14----14----------------|
B|-12-13-15----15----15-------------15----15-13-12-13-12-|
G|-------------------------------------------------------|
D|-------------------------------------------------------|
A|-------------------------------------------------------|
E|-------------------------------------------------------|

e|-----------------------------------------------------|
B|-----------------------------------------------------|
G|-14-12-11-12-11----11---------------11-12-14-14b-14b-|
D|----------------14----12-14---12-14------------------|
A|-----------------------------------------------------|
E|-----------------------------------------------------|

Solo continues ontop of the Chorus riff here:

e|----------------------------------------------|--------------------------------------|
B|-15b--15br-15-12------------12-12h13p12-------|--------------------------------------|
G|-----------------14-12---14-------------14-12-|-11h12p11~--9-11----------------------|
D|----------------------------------------------|-----------------10-9~--9-12-14-14b~--|
A|----------------------------------------------|--------------------------------------|
E|----------------------------------------------|--------------------------------------|

e|------------------------------------------|-----------------------------------|
B|------------------------------------------|-----------------------------------|
G|------------------------------------------|----------------------------14b~---|
D|-14b--14b--14br------------9h12-9-10-12---|-14h16h17-14h16h17-14h16h17--------|
A|----------------10---10h12----------------|-----------------------------------|
E|------------------------------------------|-----------------------------------|

e|-12h15p12----12-----------------------------------------------17-17b~--|
B|----------15----15-12h15-----------12-15-17-19-17-19-20-19-20----------|
G|-------------------------12-----14-------------------------------------|
D|-----------------------------------------------------------------------|
A|-----------------------------------------------------------------------|
E|-----------------------------------------------------------------------|

e|-12h15p12----12----------------------------|---------------------------------------------|
B|----------15----15-12h15-------------------|---------------------------------------------|
G|-------------------------12---11----11-12--|-14-14br-12-14-12-11-------------11-12-14b~--|
D|---------------------------------14--------|---------------------14-13~---14-------------|
A|-------------------------------------------|---------------------------------------------|
E|-------------------------------------------|---------------------------------------------|

************************************

| h   Hammer-on
| p   Pull-off
| r   Release
| b   Bend
| br  Bend release
| /   Slide up
| \   Slide down
| ~   Vibrato
| *   Palm mute

************************************
Suggest correction
Give kudos to tab author, rate the tab!
1 2 3 4 5
comments
print report bad tab
guest
You may want to rate the tab now too:
select rating
Wanna post a correction for this tab? Suggest correction