Oops, an error
Loading. Please wait.

Astros tab

91 views 6 this week
no commentswrite comment
1 2 3 4 5
3 more votes to show rating
add to favorites
×
Save as Personal and add changes to this tab that will be seen only by you. Learn more ›
×
You can save this tab as Personal to edit and correct it or add notes. All changes will be seen only by you. Learn more »
launch autoscroll
font size
0
reset
how to read this tab
guitar tuner
edit
Autoscroll
slow
fast
+/-
esc
set tempo
stop
Artist: Ciro y Los Persas
Song: Astros
Album: 27 (2011)

BPM = ~140

[Intro/Main Riff]
e|----------------------------------------|----------------------------------------|
B|--8-8-8---6-6--5------8-8-8--6-6--5-----|--8-8-8---6-6--5------8-8-8--6-6--5-----|
G|--5-5-5---5-5--5------5-5-5--5-5--5-----|--5-5-5---5-5--5------5-5-5--5-5--5-----|
D|----------------------------------------|----------------------------------------|
A|----------------------------------------|----------------------------------------|
E|----------------------------------------|----------------------------------------|
                                                                                     (x2)
e|----------------------------------|
B|----------------------------------|
G|-7b9---7b9-7b9--------------------|
D|---------------10-9-10p9----------|
A|-------------------------10/12----|
E|----------------------------------|

[Verse 1]
   A5                                C5
e|---------------------------------|---------------------------------|
B|---------------------------------|---------------------------------|
G|---------------------------------|---------------------------------|
D|-2-------------------------------|-5-------------------------------|
A|-0-0-0-0-0-0-0-0-0-0-0-0-0-0-0-0-|-3-3-3-3-3-3-3-3-3-3-3-3-3-3-3-3-|
E|---------------------------------|---------------------------------|
P.M  -----------------------------     -----------------------------

   G5                                F5
e|---------------------------------|---------------------------------|
B|---------------------------------|---------------------------------|
G|---------------------------------|---------------------------------|
D|---------------------------------|---------------------------------|
A|-5-------------------------------|-3-------------------------------|
E|-3-3-3-3-3-3-3-3-3-3-3-3-3-3-3-3-|-1-1-1-1-1-1-1-1-1-1-1-1-1-1-1-1-|
P.M  -----------------------------     -----------------------------

e|---------------------------|
B|---------------------------|
G|---------------------------|
D|----3p2-3p2------3p2-3p2---|
A|---------------------------|
E|-0----------3-0------------|

[Verse 2]
   A5                                C5
e|---------------------------------|---------------------------------|
B|---------------------------------|---------------------------------|
G|---------------------------------|---------------------------------|
D|-2-------------------------------|-5-------------------------------|
A|-0-0-0-0-0-0-0-0-0-0-0-0-0-0-0-0-|-3-3-3-3-3-3-3-3-3-3-3-3-3-3-3-3-|
E|---------------------------------|---------------------------------|
P.M  -----------------------------     -----------------------------

   G5                                F5
e|---------------------------------|---------------------------------|
B|---------------------------------|---------------------------------|
G|---------------------------------|---------------------------------|
D|---------------------------------|---------------------------------|
A|-5-------------------------------|-3-------------------------------|
E|-3-3-3-3-3-3-3-3-3-3-3-3-3-3-3-3-|-1-1-1-1-1-1-1-1-1-1-1-1-1-1-1-1-|
P.M  -----------------------------     -----------------------------

e|---------------------------|
B|---------------------------|
G|---------------------------|
D|----3p2-3p2------3p2-3p2---|
A|---------------------------|
E|-0----------3-0------------|

[Chorus]
   A5                                C5
e|---------------------------------|---------------------------------|
B|---------------------------------|---------------------------------|
G|---------------------------------|---------------------------------|
D|-2-2-2-2-2-2-2-2-2-2-2-2-2-2-2-2-|-5-5-5-5-5-5-5-5-5-5-5-5-5-5-5-5-|
A|-0-0-0-0-0-0-0-0-0-0-0-0-0-0-0-0-|-3-3-3-3-3-3-3-3-3-3-3-3-3-3-3-3-|
E|---------------------------------|---------------------------------|
                                                                       (x2)
   G5                                F5
e|---------------------------------|---------------------------------|
B|---------------------------------|---------------------------------|
G|---------------------------------|---------------------------------|
D|---------------------------------|---------------------------------|
A|-5-5-5-5-5-5-5-5-5-5-5-5-5-5-5-5-|-3-3-3-3-3-3-3-3-3-3-3-3-3-3-3-3-|
E|-3-3-3-3-3-3-3-3-3-3-3-3-3-3-3-3-|-1-1-1-1-1-1-1-1-1-1-1-1-1-1-1-1-|

[Main Riff]
e|----------------------------------------|----------------------------------------|
B|--8-8-8---6-6--5------8-8-8--6-6--5-----|--8-8-8---6-6--5------8-8-8--6-6--5-----|
G|--5-5-5---5-5--5------5-5-5--5-5--5-----|--5-5-5---5-5--5------5-5-5--5-5--5-----|
D|----------------------------------------|----------------------------------------|
A|----------------------------------------|----------------------------------------|
E|----------------------------------------|----------------------------------------|
                                                                                     
e|----------------------------------|
B|----------------------------------|
G|-7b9---7b9-7b9--------------------|
D|---------------10-9-10p9----------|
A|-------------------------10/12----|
E|----------------------------------|

[Verse 3]
   A5                                C5
e|---------------------------------|---------------------------------|
B|---------------------------------|---------------------------------|
G|---------------------------------|---------------------------------|
D|-2-------------------------------|-5-------------------------------|
A|-0-0-0-0-0-0-0-0-0-0-0-0-0-0-0-0-|-3-3-3-3-3-3-3-3-3-3-3-3-3-3-3-3-|
E|---------------------------------|---------------------------------|
P.M  -----------------------------     -----------------------------

   G5                                F5
e|---------------------------------|---------------------------------|
B|---------------------------------|---------------------------------|
G|---------------------------------|---------------------------------|
D|---------------------------------|---------------------------------|
A|-5-------------------------------|-3-------------------------------|
E|-3-3-3-3-3-3-3-3-3-3-3-3-3-3-3-3-|-1-1-1-1-1-1-1-1-1-1-1-1-1-1-1-1-|
P.M  -----------------------------     -----------------------------

e|---------------------------|
B|---------------------------|
G|---------------------------|
D|----3p2-3p2------3p2-3p2---|
A|---------------------------|
E|-0----------3-0------------|

[Verse 4]
   A5                                C5
e|---------------------------------|---------------------------------|
B|---------------------------------|---------------------------------|
G|---------------------------------|---------------------------------|
D|-2-------------------------------|-5-------------------------------|
A|-0-0-0-0-0-0-0-0-0-0-0-0-0-0-0-0-|-3-3-3-3-3-3-3-3-3-3-3-3-3-3-3-3-|
E|---------------------------------|---------------------------------|
P.M  -----------------------------     -----------------------------

   G5                                F5
e|---------------------------------|---------------------------------|
B|---------------------------------|---------------------------------|
G|---------------------------------|---------------------------------|
D|---------------------------------|---------------------------------|
A|-5-------------------------------|-3-------------------------------|
E|-3-3-3-3-3-3-3-3-3-3-3-3-3-3-3-3-|-1-1-1-1-1-1-1-1-1-1-1-1-1-1-1-1-|
P.M  -----------------------------     -----------------------------

e|---------------------------|
B|---------------------------|
G|---------------------------|
D|----3p2-3p2------3p2-3p2---|
A|---------------------------|
E|-0----------3-0------------|

[Chorus]
   A5                                C5
e|---------------------------------|---------------------------------|
B|---------------------------------|---------------------------------|
G|---------------------------------|---------------------------------|
D|-2-2-2-2-2-2-2-2-2-2-2-2-2-2-2-2-|-5-5-5-5-5-5-5-5-5-5-5-5-5-5-5-5-|
A|-0-0-0-0-0-0-0-0-0-0-0-0-0-0-0-0-|-3-3-3-3-3-3-3-3-3-3-3-3-3-3-3-3-|
E|---------------------------------|---------------------------------|
                                                                       
   G5                                F5
e|---------------------------------|---------------------------------|
B|---------------------------------|---------------------------------|
G|---------------------------------|---------------------------------|
D|---------------------------------|---------------------------------|
A|-5-5-5-5-5-5-5-5-5-5-5-5-5-5-5-5-|-3-3-3-3-3-3-3-3-3-3-3-3-3-3-3-3-|
E|-3-3-3-3-3-3-3-3-3-3-3-3-3-3-3-3-|-1-1-1-1-1-1-1-1-1-1-1-1-1-1-1-1-|

   E5 F5 E5 F5 E5
e|----------------|
B|----------------|
G|----------------|
D|--2--3--2--3--2-|
A|--2--3--2--3--2-|
E|--0--1--0--1--0-|

   A5                                C5
e|---------------------------------|---------------------------------|
B|---------------------------------|---------------------------------|
G|---------------------------------|---------------------------------|
D|-2-2-2-2-2-2-2-2-2-2-2-2-2-2-2-2-|-5-5-5-5-5-5-5-5-5-5-5-5-5-5-5-5-|
A|-0-0-0-0-0-0-0-0-0-0-0-0-0-0-0-0-|-3-3-3-3-3-3-3-3-3-3-3-3-3-3-3-3-|
E|---------------------------------|---------------------------------|
                                                                       
   G5                                F5
e|---------------------------------|---------------------------------|
B|---------------------------------|---------------------------------|
G|---------------------------------|---------------------------------|
D|---------------------------------|---------------------------------|
A|-5-5-5-5-5-5-5-5-5-5-5-5-5-5-5-5-|-3-3-3-3-3-3-3-3-3-3-3-3-3-3-3-3-|
E|-3-3-3-3-3-3-3-3-3-3-3-3-3-3-3-3-|-1-1-1-1-1-1-1-1-1-1-1-1-1-1-1-1-|

e|---------------------------|
B|---------------------------|
G|---------------------------|
D|----3p2-3p2------3p2-3p2---|
A|---------------------------|
E|-0----------3-0------------|

[Guitar Solo]
e|-----------------------------------------------|
B|-----------------------------------------------|
G|-----------------------------------------------|
D|-----------------------------------------------|
A|--------------5-------5---5--------------------|
E|-5-7-8--5-7-8---5-5-----5---8-5-5--8-7-8-7---4-|

e|-------------------------------------------------|
B|------------------------------7---------6---5----|
G|-7b9--7b9--7b9--7b9---7b9-7b9-7p5-7b9---8b10-7b9-|
D|-------------------------------------------------|
A|-------------------------------------------------|
E|-------------------------------------------------|

E|---------------------------------------------------------|
B|---------------------------------------------------------|
G|-4b5-4---------------------------------------------------|
D|-------7-5----------------------------------------5-5-7-7|
A|-----------7/5-3-5p3----3-5----------3-3-5-5-7-7---------|
E|---------------------3-------3---3-3---------------------|

E|----------------------------------------------------------|
B|--------------5---9-10-9----10-9--------------------------|
G|--5-5-7-7-7b9-5----------10------10-9-10-9h10p9/7-----7b9-|
D|----------------------------------------------------------|
A|----------------------------------------------------------|
E|----------------------------------------------------------|

E|----------------------------------------------------------|
B|----------------------------------------------9h10p9h10p9-|
G|-4h5p4h5p4--5h7p5h7p5--7h9p7h9p7--9h10p9h10p9-------------|
D|----------------------------------------------------------|
A|----------------------------------------------------------|
E|----------------------------------------------------------|

E|----------------------------------------|
B|-10h12p10h12p10-12h13p12h13p12----15b17-|
G|-------------------------------14-------|
D|----------------------------------------|
A|----------------------------------------|
E|----------------------------------------|

[Chorus]
   A5                                C5
e|---------------------------------|---------------------------------|
B|---------------------------------|---------------------------------|
G|---------------------------------|---------------------------------|
D|-2-------------------------------|-5-5-5-5-5-5-5-5-5-5-5-5-5-5-5-5-|
A|-0-------------------------------|-3-3-3-3-3-3-3-3-3-3-3-3-3-3-3-3-|
E|---------------------------------|---------------------------------|
                                                                       
   G5                                F5
e|---------------------------------|---------------------------------|
B|---------------------------------|---------------------------------|
G|---------------------------------|---------------------------------|
D|---------------------------------|---------------------------------|
A|-5-5-5-5-5-5-5-5-5-5-5-5-5-5-5-5-|-3-3-3-3-3-3-3-3-3-3-3-3-3-3-3-3-|
E|-3-3-3-3-3-3-3-3-3-3-3-3-3-3-3-3-|-1-1-1-1-1-1-1-1-1-1-1-1-1-1-1-1-|

   E5 F5 E5 F5 E5
e|----------------|
B|----------------|
G|----------------|
D|--2--3--2--3--2-|
A|--2--3--2--3--2-|
E|--0--1--0--1--0-|

   A5                                C5
e|---------------------------------|---------------------------------|
B|---------------------------------|---------------------------------|
G|---------------------------------|---------------------------------|
D|-2-2-2-2-2-2-2-2-2-2-2-2-2-2-2-2-|-5-5-5-5-5-5-5-5-5-5-5-5-5-5-5-5-|
A|-0-0-0-0-0-0-0-0-0-0-0-0-0-0-0-0-|-3-3-3-3-3-3-3-3-3-3-3-3-3-3-3-3-|
E|---------------------------------|---------------------------------|
                                                                       
   G5                                F5
e|---------------------------------|---------------------------------|
B|---------------------------------|---------------------------------|
G|---------------------------------|---------------------------------|
D|---------------------------------|---------------------------------|
A|-5-5-5-5-5-5-5-5-5-5-5-5-5-5-5-5-|-3-3-3-3-3-3-3-3-3-3-3-3-3-3-3-3-|
E|-3-3-3-3-3-3-3-3-3-3-3-3-3-3-3-3-|-1-1-1-1-1-1-1-1-1-1-1-1-1-1-1-1-|

e|---------------------------|
B|---------------------------|
G|---------------------------|
D|----3p2-3p2------3p2-3p2---|
A|---------------------------|
E|-0----------3-0------------|

[Outro]
   A5                                C5
e|---------------------------------|---------------------------------|
B|---------------------------------|---------------------------------|
G|---------------------------------|---------------------------------|
D|-2-------------------------------|-5-------------------------------|
A|-0-0-0-0-0-0-0-0-0-0-0-0-0-0-0-0-|-3-3-3-3-3-3-3-3-3-3-3-3-3-3-3-3-|
E|---------------------------------|---------------------------------|
P.M  -----------------------------     -----------------------------
                                                                       (x2)
   G5                                F5
e|---------------------------------|---------------------------------|
B|---------------------------------|---------------------------------|
G|---------------------------------|---------------------------------|
D|---------------------------------|---------------------------------|
A|-5-------------------------------|-3-------------------------------|
E|-3-3-3-3-3-3-3-3-3-3-3-3-3-3-3-3-|-1-1-1-1-1-1-1-1-1-1-1-1-1-1-1-1-|
P.M  -----------------------------     -----------------------------

e|--------------------------------|
B|--------------------------------|
G|------------------------------2-|
D|----3p2-3p2------3p2-3p2------2-|
A|------------------------------0-|
E|-0----------3-0-----------0-----|


************************************

| b  Bend
| p  Pull-off
| /  Slide up
| h  Hammer-on

************************************

            
            
Suggest correction
Creating personal tab
Creating personal tab
You can edit any tab online and save it as your Personal.

You can edit, replace or remove any tab part or add personal notes – all changes will be seen only by you.

Personal tabs can be accessed anytime from any device, even offline.
Learn more »
Give kudos to tab author, rate the tab!
1 2 3 4 5
comments
print report bad tab
guest
You may want to rate the tab now too:
select rating
Wanna post a correction for this tab? Suggest correction