Oops, an error
Loading. Please wait.

Alcohol tab

16 views 1 this week
no commentswrite comment
1 2 3 4 5
3 more votes to show rating
add to favorites
×
Save as Personal and add changes to this tab that will be seen only by you. Learn more ›
×
You can save this tab as Personal to edit and correct it or add notes. All changes will be seen only by you. Learn more »
launch autoscroll
font size
0
reset
how to read this tab
guitar tuner
edit
Autoscroll
slow
fast
+/-
esc
set tempo
stop
   ALCOHOL
  CIRROSIS


 GTR1
------------------------------------------
------------------------------------------
--7-7-7-9-9-7-9-6-6-6-6-7---------------6-
--------------------------9-9-9-9-7-7-9---
------------------------------------------
------------------------------------------


----------------------------------------------
------------------------------------7-5-------
--7-7-7-9-9-7-9-6-6-6-6-7-7-7-7-7-7-----7-6-7- X2
----------------------------------------------
----------------------------------------------
----------------------------------------------

 GTR2

--------------------------------------------
--------------------------------------------
-7-7-7-7-7---------------------------------- X4
-7-7-7-7-7--7-7-7-7-7--5-5-5-5-5--7-7-7-7-7-
-5-5-5-5-5--7-7-7-7-7--5-5-5-5-5--7-7-7-7-7-
------------5-5-5-5-5--3-3-3-3-3--5-5-5-5-5-
eso es el intro


--------------------------------------------
--------------------------------------------
-7------------------------------------------
-7-----------7--------------5------------7--
-5-----------7--------------5------------7--
-------------5--------------3------------5--
Hay algo ke llevo muy dentro de mi corazon

--------------------------------------------
--------------------------------------------
-7------------------------------------------
-7-----------7--------------5------------7--
-5-----------7--------------5------------7--
-------------5--------------3------------5--
  no puedo evitarlo el amor por el alcohol


-----------------------------------
-----------------------------------
-7-7-7-7-7-7-7-7-------------------
-7-7-7-7-7-7-7-7--7-7-7-7-7-7-7-7--
-5-5-5-5-5-5-5-5--7-7-7-7-7-7-7-7--
------------------5-5-5-5-5-5-5-5--
Cuando stoy borracho mi


-----------------------------------
-----------------------------------
-----------------------------------
--5-5-5-5-5-5-5-5--7-7-7-7-7-7-7-7-
--5-5-5-5-5-5-5-5--7-7-7-7-7-7-7-7-
--3-3-3-3-3-3-3-3--5-5-5-5-5-5-5-5-
botella y yo Hacemos el amor


-----------------------------------
-----------------------------------
-7-7-7-7-7-7-7-7-------------------
-7-7-7-7-7-7-7-7--7-7-7-7-7-7-7-7--
-5-5-5-5-5-5-5-5--7-7-7-7-7-7-7-7--
------------------5-5-5-5-5-5-5-5--
    Kisiera evitarlo pero

-----------------------------------
-----------------------------------
-----------------------------------
--5-5-5-5-5-5-5-5--7-7-7-7-7-7-7-7-
--5-5-5-5-5-5-5-5--7-7-7-7-7-7-7-7-
--3-3-3-3-3-3-3-3--5-5-5-5-5-5-5-5-

     yo no puedo no


-----------------------------------
-----------------------------------
-7-7-7-7-7-7-7-7-------------------
-7-7-7-7-7-7-7-7--7-7-7-7-7-7-7-7--
-5-5-5-5-5-5-5-5--7-7-7-7-7-7-7-7--
------------------5-5-5-5-5-5-5-5--
es irresistible cuando yo

-----------------------------------
-----------------------------------
-----------------------------------
--5-5-5-5-5-5-5-5--7-7-7-7-7-7-7-7-
--5-5-5-5-5-5-5-5--7-7-7-7-7-7-7-7-
--3-3-3-3-3-3-3-3--5-5-5-5-5-5-5-5-
 te veo parada frente a mi


-----------------------------------
-----------------------------------
-7-7-7-7-7-7-7-7-------------------
-7-7-7-7-7-7-7-7--7-7-7-7-7-7-7-7--
-5-5-5-5-5-5-5-5--7-7-7-7-7-7-7-7--
------------------5-5-5-5-5-5-5-5--
Es insoportable no lo puedo


-----------------------------------
-----------------------------------
-----------------------------------
--5-5-5-5-5-5-5-5--7-7-7-7-7-7-7-7-
--5-5-5-5-5-5-5-5--7-7-7-7-7-7-7-7-
--3-3-3-3-3-3-3-3--5-5-5-5-5-5-5-5-
     resistir Voy a tomar


--------------------------------------------
--------------------------------------------
-7-7-7-7-7----------------------------------
-7-7-7-7-7--7-7-7-7-7--5-5-5-5-5--7-7-7-7-7-
-5-5-5-5-5--7-7-7-7-7--5-5-5-5-5--7-7-7-7-7-
------------5-5-5-5-5--3-3-3-3-3--5-5-5-5-5-
    ia           ia         ia        se que


--------------------------------------------
--------------------------------------------
-7-7-7-7-7----------------------------------
-7-7-7-7-7--7-7-7-7-7--5-5-5-5-5--7-7-7-7-7-
-5-5-5-5-5--7-7-7-7-7--5-5-5-5-5--7-7-7-7-7-
------------5-5-5-5-5--3-3-3-3-3--5-5-5-5-5-
me va a hacer mal   ia     ia         no lo


--------------------------------------------
--------------------------------------------
-7-7-7-7-7----------------------------------
-7-7-7-7-7--7-7-7-7-7--5-5-5-5-5--7-7-7-7-7-
-5-5-5-5-5--7-7-7-7-7--5-5-5-5-5--7-7-7-7-7-
------------5-5-5-5-5--3-3-3-3-3--5-5-5-5-5-
puedo evitar   ia    ia      ia         se que


--------------------------------------------
--------------------------------------------
-7-7-7-7-7----------------------------------
-7-7-7-7-7--7-7-7-7-7--5-5-5-5-5--7-7-7-7-7-
-5-5-5-5-5--7-7-7-7-7--5-5-5-5-5--7-7-7-7-7-
------------5-5-5-5-5--3-3-3-3-3--5-5-5-5-5-
me va a mataaaaaaaaaaaaaaaaaaaaaaaaaaaar

------------------------------------------
------------------------------------------
-7-7-7-7-7-------------------------------- x2
-7-7-7-7-7--7-7-7-7-7--5-5-5-5---7-7-7-7--
-5-5-5-5-5--7-7-7-7-7--5-5-5-5---7-7-7-7--
------------5-5-5-5-5--3-3-3-3---5-5-5-5--
                       ( pm)     (pm )

--------------------------------------------
--------------------------------------------
-7------------------------------------------
-7-----------7--------------5------------7--
-5-----------7--------------5------------7--
-------------5--------------3------------5--
No me digas nada Se muy bien ke yo voy a seguir igual

--------------------------------------------
--------------------------------------------
-7------------------------------------------
-7-----------7--------------5------------7--
-5-----------7--------------5------------7--
-------------5--------------3------------5--
No me digaN nada vayan a mi funeral


-----------------------------------
-----------------------------------
-7-7-7-7-7-7-7-7-------------------
-7-7-7-7-7-7-7-7--7-7-7-7-7-7-7-7--
-5-5-5-5-5-5-5-5--7-7-7-7-7-7-7-7--
------------------5-5-5-5-5-5-5-5--
no me detendran

-----------------------------------
-----------------------------------
-----------------------------------
--5-5-5-5-5-5-5-5--7-7-7-7-7-7-7-7-
--5-5-5-5-5-5-5-5--7-7-7-7-7-7-7-7-
--3-3-3-3-3-3-3-3--5-5-5-5-5-5-5-5-
todos los muertos de tanto tomar


-----------------------------------
-----------------------------------
-7-7-7-7-7-7-7-7-------------------
-7-7-7-7-7-7-7-7--7-7-7-7-7-7-7-7--
-5-5-5-5-5-5-5-5--7-7-7-7-7-7-7-7--
------------------5-5-5-5-5-5-5-5--
ni me detendran

-----------------------------------
-----------------------------------
-----------------------------------
--5-5-5-5-5-5-5-5--7-7-7-7-7-7-7-7-
--5-5-5-5-5-5-5-5--7-7-7-7-7-7-7-7-
--3-3-3-3-3-3-3-3--5-5-5-5-5-5-5-5-
los amigos de la moral


-----------------------------------
-----------------------------------
-7-7-7-7-7-7-7-7-------------------
-7-7-7-7-7-7-7-7--7-7-7-7-7-7-7-7--
-5-5-5-5-5-5-5-5--7-7-7-7-7-7-7-7--
------------------5-5-5-5-5-5-5-5--
Es irresistible cuando yo

-----------------------------------
-----------------------------------
-----------------------------------
--5-5-5-5-5-5-5-5--7-7-7-7-7-7-7-7-
--5-5-5-5-5-5-5-5--7-7-7-7-7-7-7-7-
--3-3-3-3-3-3-3-3--5-5-5-5-5-5-5-5-
te veo parada frente a mi


-----------------------------------
-----------------------------------
-7-7-7-7-7-7-7-7-------------------
-7-7-7-7-7-7-7-7--7-7-7-7-7-7-7-7--
-5-5-5-5-5-5-5-5--7-7-7-7-7-7-7-7--
------------------5-5-5-5-5-5-5-5--
es insoportable

-----------------------------------
-----------------------------------
-----------------------------------
--5-5-5-5-5-5-5-5--7-7-7-7-7-7-7-7-
--5-5-5-5-5-5-5-5--7-7-7-7-7-7-7-7-
--3-3-3-3-3-3-3-3--5-5-5-5-5-5-5-5-
 no lo puedo resistir  voy a tomar


--------------------------------------------
--------------------------------------------
-7-7-7-7-7----------------------------------
-7-7-7-7-7--7-7-7-7-7--5-5-5-5-5--7-7-7-7-7-
-5-5-5-5-5--7-7-7-7-7--5-5-5-5-5--7-7-7-7-7-
------------5-5-5-5-5--3-3-3-3-3--5-5-5-5-5-
    ia           ia         ia        se que


--------------------------------------------
--------------------------------------------
-7-7-7-7-7----------------------------------
-7-7-7-7-7--7-7-7-7-7--5-5-5-5-5--7-7-7-7-7-
-5-5-5-5-5--7-7-7-7-7--5-5-5-5-5--7-7-7-7-7-
------------5-5-5-5-5--3-3-3-3-3--5-5-5-5-5-
me va a hacer mal   ia     ia         no lo


--------------------------------------------
--------------------------------------------
-7-7-7-7-7----------------------------------
-7-7-7-7-7--7-7-7-7-7--5-5-5-5-5--7-7-7-7-7-
-5-5-5-5-5--7-7-7-7-7--5-5-5-5-5--7-7-7-7-7-
------------5-5-5-5-5--3-3-3-3-3--5-5-5-5-5-
puedo evitar   ia    ia      ia         se que


--------------------------------------------
--------------------------------------------
-7-7-7-7-7----------------------------------
-7-7-7-7-7--7-7-7-7-7--5-5-5-5-5--7-7-7-7-7-
-5-5-5-5-5--7-7-7-7-7--5-5-5-5-5--7-7-7-7-7-
------------5-5-5-5-5--3-3-3-3-3--5-5-5-5-5-
me va a mataaaaaaaaaaaaaaaaaaaaaaaaaaaar


--------------------------------------------
--------------------------------------------
-7------------------------------------------ x2
-7-----------7--------------5------------7--
-5-----------7--------------5------------7--
-------------5--------------3------------5--

solo
----------------------------------------------------------------
--12p10-10-10-10-10-12p10-10-10-10-10-12p10-10-10-10-10---------
--------------------------------------------------------12-11-9-
----------------------------------------------------------------
----------------------------------------------------------------
----------------------------------------------------------------

----------------------------------------------------------------
--12p10-10-10-10-10-12p10-10-10-10-10-12p10-10-10-10-10---------
--------------------------------------------------------12-11-9-
----------------------------------------------------------------
----------------------------------------------------------------
----------------------------------------------------------------

----------------------------------
----------------------------------
--7-9-11-12-11-9-7-9-11-12-11-9-7-
----------------------------------
----------------------------------
----------------------------------


--------------------------------------------
--------------------------------------------
-7-7-7-7-7----------------------------------
-7-7-7-7-7--7-7-7-7-7--5-5-5-5-5--7-7-7-7-7- x4
-5-5-5-5-5--7-7-7-7-7--5-5-5-5-5--7-7-7-7-7-
------------5-5-5-5-5--3-3-3-3-3--5-5-5-5-5-

       the end

            
            
Suggest correction
Creating personal tab
Creating personal tab
You can edit any tab online and save it as your Personal.

You can edit, replace or remove any tab part or add personal notes – all changes will be seen only by you.

Personal tabs can be accessed anytime from any device, even offline.
Learn more »
Give kudos to tab author, rate the tab!
1 2 3 4 5
comments
print report bad tab
guest
Wanna post a correction for this tab? Suggest correction