Oops, an error
Loading. Please wait.

Hoy tab

by Cirse
151 views 1 this week
no commentswrite comment
1 2 3 4 5
3 more votes to show rating
add to favorites
×
Save as Personal and add changes to this tab that will be seen only by you. Learn more ›
×
You can save this tab as Personal to edit and correct it or add notes. All changes will be seen only by you. Learn more »
launch autoscroll
font size
0
reset
how to read this tab
guitar tuner
edit
Autoscroll
slow
fast
+/-
esc
set tempo
stop
Intro: | Am  |  Am  |  F  |  G  |


e|---------------------------------------------------------------------------
B|---------------------------------------------------------------------------
G|------5-4--------------------5-4-------------------------------------------
D|---7-------5--5~7-7-7-----7--------5--5~7-7-7-----5-5-5-5-5-5---5-5-5-5-5--
A|-0---------------------0---------------------------------------------------
E|-----------------------------------------------1--------------3------------

PM ·········································································

   Am                    Am                      F              G


Am
Hace ya tiempo que no estoy
                           F              G
Me convertí en lo que no suelo ser, otra vez
             Am
Puedo ver en mí que estoy evitándolo
                          F
Pero lo cierto es que la vida me enseñó
       G
que morimos solos


F    G        Am
Hoy...Cómo estas?
C           F               G
 Reviviendo lo que es ser feliz
      Am      C
Lo tibio al despertar
F    G        Am
Y hoy...Dónde Vas?
C           F              G
 Sé que no confiar en nadie
      Am      C
Más va a rescatarme


(Riff Intro)

Am

              F
Va cambiando Mi resolución
        G
Y mi abrigo se empieza a notar
Am
fui congelando mis recuerdos
               F             G
Dejando de esperar de los demás, Pero...


F    G        Am
Hoy...Cómo estas?
C           F               G
 Reviviendo lo que es ser feliz
      Am      C
Lo tibio al despertar
F    G        Am
Y hoy...Dónde Vas?
C           F              G
 Sé que no confiar en nadie
      Am      C
Más va a rescatarme


Solo (x2):

e|------------------------------------7~8-7-7-------
B|--8~10-10-10-8~10---------8-10-8-10---------8-----
G|------------------9---7~9-------------------------
D|--------------------------------------------------
A|--------------------------------------------------
E|--------------------------------------------------

e|--------------------------------------------------
B|-8~10-10-10-8~10----------------------------------
G|----------------9---7~9-7-------------------------
D|--------------------------10-9-10-9~10-7-9-----7--
A|--------------------------------------------10----
E|--------------------------------------------------

Sé que no confiar en nadie mas

Me va a rescatar.

            
            
Suggest correction
Creating personal tab
Creating personal tab
You can edit any tab online and save it as your Personal.

You can edit, replace or remove any tab part or add personal notes – all changes will be seen only by you.

Personal tabs can be accessed anytime from any device, even offline.
Learn more »
Give kudos to tab author, rate the tab!
1 2 3 4 5
comments
print report bad tab
guest
Wanna post a correction for this tab? Suggest correction