Oops, an error
Loading. Please wait.

Heaviside bass

by Citizen
493 views 6 this week
1 commentread comment
1 2 3 4 5
2 more votes to show rating
add to favorites
×
Save as Personal and add changes to this tab that will be seen only by you. Learn more ›
×
You can save this tab as Personal to edit and correct it or add notes. All changes will be seen only by you. Learn more »
launch autoscroll
font size
0
reset
guitar tuner
edit
Autoscroll
slow
fast
+/-
esc
set tempo
stop
-------------------------------------------------------------------------------
                             HEAVISIDE - Citizen
-------------------------------------------------------------------------------
Tabbed by: Dylan (SM64Dude)
Tuning: DADG

Did my best with this one, love this song. Enjoy! 

Intro/Verse
G|-------------------2/7--7-7--7---7\--------------------1/6--6-6--6-------|
D|---------------------------------------------------------------------3---|   [x4]
A|-5--5---5-5--5-5---------------------4--4---4-4--4-4---------------------|
D|-------------------------------------------------------------------------|

Pre-chorus
G|-------------------------------|
D|-------------------------------|
A|-2-2-2-2-2-2-2-2-2-2-2-2-2-2---|
D|-----------------------------5-|

Chorus
G|--------------------------------------------------------------|
D|--------------------------------------------------------------|
A|---------------------------------2--2---2--2-2--4--4---4--4-4-|
D|-4--4---4--4-4--3--3---3--3-3-2-------------------------------|

G|-------------------------------------------------------|
D|-------------------------------------------------------|
A|-------------------------------------------------------|
D|-4--4---4--4-4--3--3---3--3-2--0--0---0--0-0--2---2~---|

Verse
G|-------------------2/7--7-7--7---7\--------------------1/6--6-6--6-------|
D|---------------------------------------------------------------------3---|   [x4]
A|-5--5---5-5--5-5---------------------4--4---4-4--4-4---------------------|
D|-------------------------------------------------------------------------|

Pre-chorus
G|-------------------------------|
D|-------------------------------|
A|-2-2-2-2-2-2-2-2-2-2-2-2-2-2---|
D|-----------------------------5-|

Chorus
G|--------------------------------------------------------------|
D|--------------------------------------------------------------|
A|---------------------------------2--2---2--2-2--4--4---4--4-4-|
D|-4--4---4--4-4--3--3---3--3-3-2-------------------------------|

G|-------------------------------------------------------|
D|-------------------------------------------------------|
A|-------------------------------------------------------|
D|-4--4---4--4-4--3--3---3--3-2--0--0---0--0-0--2---2~---|

Outro
G|-------------------2/7--7-7--7---7\--------------------1/6--6-6--6-------|
D|---------------------------------------------------------------------3---|   [x3]
A|-5--5---5-5--5-5---------------------4--4---4-4--4-4---------------------|
D|-------------------------------------------------------------------------|

 /  slide up
 \  slide down

There you have it! Overall, a pretty easy tab. Slide downs are personal preference, I don't think he plays them,
though he definitely plays the slide ups. Good luck, and let me know of any issues!
===============================================================================

            
            
Suggest correction
Creating personal tab
Creating personal tab
You can edit any tab online and save it as your Personal.

You can edit, replace or remove any tab part or add personal notes – all changes will be seen only by you.

Personal tabs can be accessed anytime from any device, even offline.
Learn more »
Give kudos to tab author, rate the tab!
1 2 3 4 5
comments
print report bad tab
1 comment total.
0 reply
SM64Dude 53 Nov 16, 2016 07:30 PM

Here's a video I made of myself playing the tab! In case it was confusing. Thanks!

https://www.youtube.com/watch?v=gZRKzMpOxYw

guest
You may want to rate the tab now too:
select rating
Wanna post a correction for this tab? Suggest correction