Oops, an error
Loading. Please wait.

Heaviside tab

version 1
version 1

Whole song

by Citizen
238 views 3 this week
no commentswrite comment
1 2 3 4 5
3 more votes to show rating
add to favorites
×
Save as Personal and add changes to this tab that will be seen only by you. Learn more ›
×
You can save this tab as Personal to edit and correct it or add notes. All changes will be seen only by you. Learn more »
launch autoscroll
font size
0
reset
how to read this tab
guitar tuner
edit
Autoscroll
slow
fast
+/-
esc
set tempo
stop
Thanks to Jonathan Gonzalez for the proper chords for the chorus! @undercoveronionring

Tabbed out by Tyler Spruill. @tylerspruill_

This is how Mat Kerekes played Heaviside on his Instagram livestream so I'm going to assume this is the 
correct way to play the song. If you're playing on an electric, you might not want to play the B and high e
strings.


[Intro]
(First Guitar)
e|--0--0--0-----------|
B|--0--0--0-----------|
G|--2--1--1-----------|  (x2)
D|--4--2--3-----------|
A|--5--4--4-----------|
E|--x--x--x-----------|

(Second Guitar)
e|-----------------------------------------------------------|
B|--------------------------------5-5-5-2~-0---5-2~----------|
G|-----------------------------------------------------------| (x2)
D|-4-4-4-4-4-6-6-6-6-6-7-7-7-7-7-------------------------3~--|
A|-----------------------------------------------------------|
E|-----------------------------------------------------------|

[Verse]
"No one knows where the byway leads to..."
(First Guitar)
e|--0--0--0-----------|
B|--0--0--0-----------|
G|--2--1--1-----------|  (x2)
D|--4--2--3-----------|
A|--5--4--4-----------|
E|--x--x--x-----------|

[Pre-Chorus]
(Play this part after "I'll show you it")
e|-----------------------------------|
B|-----------------------------------|
G|-----------------------------------|
D|-0-0-0-0-0-0-0-0-0-0-0-0-0---------|
A|-2-2-2-2-2-2-2-2-2-2-2-2-2-0-OR-5--| (You decide)
E|---------------------------2-OR-2--|     

[Chorus]
"Nails replace the rain..."
e|--0--0--0--0-------------------------------------------------------------------|
B|--0--0--0--0-------------------------------------------------------------------|
G|--9--9--4--2-------------------------------------------------------------------|
D|--7--7--4--4-------------------------------------------------------------------|
A|--9--8--5--0-------------------------------------------------------------------|
E|--x--x--x--2-------------------------------------------------------------------|

"The sun illuminates..."
e|--0--0--0--0--0-------------------------------------------------------------------|
B|--0--0--0--0--0-------------------------------------------------------------------|
G|--9--9--6--4--6-------------------------------------------------------------------|
D|--7--7--6--4--6-------------------------------------------------------------------|
A|--9--8--7--5--7-------------------------------------------------------------------|
E|--x--x--x--x--x-------------------------------------------------------------------|

(First Guitar)
e|--0--0--0-----------|
B|--0--0--0-----------|
G|--2--1--1-----------|  (x2)
D|--4--2--3-----------|
A|--5--4--4-----------|
E|--x--x--x-----------|

(Second Guitar)
e|-----------------------------------------------------------|
B|--------------------------------5-5-5-2~-0---5-2~----------|
G|-----------------------------------------------------------| (x2)
D|-4-4-4-4-4-6-6-6-6-6-7-7-7-7-7-------------------------3~--|
A|-----------------------------------------------------------|
E|-----------------------------------------------------------|

[Verse]
"No one seems to know anyone there..."
(First Guitar)
e|--0--0--0-----------|
B|--0--0--0-----------|
G|--2--1--1-----------|  (x2)
D|--4--2--3-----------|
A|--5--4--4-----------|
E|--x--x--x-----------|

Play this part after "...deliverance"
e|-----------------------------------|
B|-----------------------------------|
G|-----------------------------------|
D|-0-0-0-0-0-0-0-0-0-0-0-0-0---------|
A|-2-2-2-2-2-2-2-2-2-2-2-2-2-0-OR-5--|  (You decide)
E|---------------------------2-OR-2--|  

[Chorus]
"The blackness facinates..."
e|--0--0--0--0-------------------------------------------------------------------|
B|--0--0--0--0-------------------------------------------------------------------|
G|--9--9--4--2-------------------------------------------------------------------|
D|--7--7--4--4-------------------------------------------------------------------|
A|--9--8--5--0-------------------------------------------------------------------|
E|--x--x--x--2-------------------------------------------------------------------|

"Still no one has ever..."
e|--0--0--0--0--0-------------------------------------------------------------------|
B|--0--0--0--0--0-------------------------------------------------------------------|
G|--9--9--6--4--6-------------------------------------------------------------------|
D|--7--7--6--4--6-------------------------------------------------------------------|
A|--9--8--7--5--7-------------------------------------------------------------------|
E|--x--x--x--x--x-------------------------------------------------------------------|

[Outro]
(This plays until it fades away into the next song)
(First Guitar)
e|--0--0--0-----------|
B|--0--0--0-----------|
G|--2--1--1-----------|  (x2)
D|--4--2--3-----------|
A|--5--4--4-----------|
E|--x--x--x-----------|

(Second Guitar)
e|-----------------------------------------------------------|
B|--------------------------------5-5-5-2~-0---5-2~----------|
G|-----------------------------------------------------------| (x2)
D|-4-4-4-4-4-6-6-6-6-6-7-7-7-7-7-------------------------3~--|
A|-----------------------------------------------------------|
E|-----------------------------------------------------------|


************************************

| x   Dead note

************************************

            
            
Suggest correction
Creating personal tab
Creating personal tab
You can edit any tab online and save it as your Personal.

You can edit, replace or remove any tab part or add personal notes – all changes will be seen only by you.

Personal tabs can be accessed anytime from any device, even offline.
Learn more »
Give kudos to tab author, rate the tab!
1 2 3 4 5
comments
print report bad tab
guest
You may want to rate the tab now too:
select rating
Wanna post a correction for this tab? Suggest correction