Oops, an error
Loading. Please wait.

Jet tab

version 1
version 1

Whole song

  • Brand new song by Citizen. Very detailed tab with lead guitar.
by Citizen
1,771 views 261 this week
no commentswrite comment
1 2 3 4 5
x 3
add to favorites
×
Save as Personal and add changes to this tab that will be seen only by you. Learn more ›
×
You can save this tab as Personal to edit and correct it or add notes. All changes will be seen only by you. Learn more »
launch autoscroll
font size
0
reset
how to read this tab
guitar tuner
edit
Autoscroll
slow
fast
+/-
esc
set tempo
stop
About this tab version
Brand new song by Citizen. Very detailed tab with lead guitar. Was this info helpful? Yes No
Artist: Citizen
Song: Jet
Album: As You Please
Track: 1 

Tuning: Drop C (CGCFAD)

YouTube cover for reference: https://www.youtube.com/watch?v=ySW3DXphTdU

[Intro/Verse]
(Guitar 1)
D|---------------------------------------------------------------------------------------------------|
A|---------------------------------------------------------------------------------------------------|
F|---------------------------------------------------------------------------------------------------| (x5)
C|---------------------------------------------------------------------------------------------------|
G|--------------------------------------------------12-12-11-11-11-------12-12-12-12-11-11-11-11-11--|
C|--11-11-11-11-11-11-11-14-14-14-14-14-14-14-14-14----------------11-11-----------------------------|
 |
D|----------------------------------------------------------------------------------------|
A|----------------------------------------------------------------------------------------|
F|--------------------------------------------------14-14-13-13-13-------14-14-14-14-13\--|
C|--------------------------------------------------x--x--x--x--x--------x--x--x--x--x----|
G|--------------------------------------------------12-12-12-12-12-------12-12-12-12-12\--|
C|--11-11-11-11-11-11-11-14-14-14-14-14-14-14-14-14----------------11-11------------------|

(Guitar 2) (After Guitar 1 plays twice)
D|----------------------------------------|
A|----------------------------------------|
F|----6----4-----6h8--9----6h8--9--9-8p6--| (x3)
C|--9----6-----6---------6----------------|
G|----------------------------------------|
C|----------------------------------------|
 |
D|--------------|
A|--------------|
F|-----6----4---|
C|---9----6-----|
G|--------------|
C|--------------|

[Chorus]
(Guitar 1)
D|-------------------------------|-------------------------------|
A|-------------------------------|-------------------------------|
F|--6--6--6-6-6-6--8-8--8-8-8-8--|-------------------------------|
C|--6--6--6-6-6-6--9-9--9-9-9-9--|--6--6--6-6-6-6--6-6--6-6-6-6--|
G|--4--4--4-4-4-4--7-7--7-7-7-7--|--7--7--7-7-7-7--7-7--7-7-7-7--|
C|-------------------------------|--7--7--7-7-7-7--7-7--7-7-7-7--|
 |
D|-------------------------------|--------------------------------|
A|-------------------------------|--------------------------------|
F|-------------------------------|--------------------------------|
C|--6--6--6-6-6-9--9-9--9-9-9-9--|--6--6--6-6-6-6-----------------|
G|--7--7--7-7-7-9--9-9--9-9-9-9--|--7--7--7-7-7-7--7-7-7-7/9-9-9--|
C|--6--6--6-6-6-9--9-9--9-9-9-9--|--7--7--7-7-7-7-----------------|

(Guitar 2)
D|-------------------------------------|--9--9--9-9-9-9--9-9--9-9-9-9--|
A|-----------------------9-9--9-9-9-9--|--9--9--9-9-9-9--9-9--9-9-9-9--|
F|--9---9---9--9--9--9---8-8--8-8-8-8--|-------------------------------|
C|--11--11--11-11-11-11----------------|-------------------------------|
G|-------------------------------------|-------------------------------|
C|-------------------------------------|-------------------------------|
 |
D|--9--9--9-9-9-9--9-9--9-9-9-9--|--9--9--9-9-9-9----------------|
A|--9--9--9-9-9-9--9-9--9-9-9-9--|--9--9--9-9-9-9----------------|
F|-------------------------------|-------------------------------|
C|-------------------------------|-------------------------------|
G|-------------------------------|-------------------------------|
C|-------------------------------|-------------------------------|

[Post Chorus]
D|--9--9--9--x-x-12-x-7--7-7-x-x-7-x-x--|--9--9--9--12-x-x-14-x-9---9--x-12--12-12-12--|
A|--9--9--9--x-x-9--x-9--9-9-x-x-9-x-x--|--9--9--9--9--x-x-9--x-9---9--x-9---9--9--9---|
F|--9--9--9--x-x-9--x-8--8-8-x-x-8-x-x--|--9--9--9--9--x-x-9--x-9---9--x-9---9--9--9---| (x2)
C|--11-11-11-x-x-11-x-9--9-9-x-x-9-x-x--|--11-11-11-11-x-x-11-x-11--11-x-11--11-11-11--|
G|--------------------------------------|----------------------------------------------|
C|--------------------------------------|----------------------------------------------|

[Verse]
(Guitar 1)
D|---------------------------------------------------------------------------------------------------|
A|---------------------------------------------------------------------------------------------------|
F|---------------------------------------------------------------------------------------------------| (x2)
C|---------------------------------------------------------------------------------------------------|
G|--------------------------------------------------12-12-11-11-11-------12-12-12-12-11-11-11-11-11--|
C|--11-11-11-11-11-11-11-14-14-14-14-14-14-14-14-14----------------11-11-----------------------------|

(Guitar 2)
D|----------------------------------------|
A|----------------------------------------|
F|----6----4-----6h8--9----6h8--9--9-8p6--| (x2)
C|--9----6-----6---------6----------------|
G|----------------------------------------|
C|----------------------------------------|

[Pre-Chorus]
(Guitar 1)
D|--------|--------|
A|--------|--------|
F|-(Rest)-|-(Rest)-|
C|--------|--------|
G|--------|--------|
C|--------|--------|
 |
D|--------|-----------------------------|
A|--------|-----------------------------|
F|---9~---|-----------------------------|
C|---11~--|--------------6-6-6-6-6-6-6--|
G|---x----|--------------7-7-7-7-7-7-7--|
C|---11~--|--------------7-7-7-7-7-7-7--|

(Guitar 2)
D|--9--9--9--x-x-12-x-7--7-7-x-x-7-x-x--|--9--9--9--12-x-x-14-x-9---9--x-12--12-12-12--|
A|--9--9--9--x-x-9--x-9--9-9-x-x-9-x-x--|--9--9--9--9--x-x-9--x-9---9--x-9---9--9--9---|
F|--9--9--9--x-x-9--x-8--8-8-x-x-8-x-x--|--9--9--9--9--x-x-9--x-9---9--x-9---9--9--9---|
C|--11-11-11-x-x-11-x-9--9-9-x-x-9-x-x--|--11-11-11-11-x-x-11-x-11--11-x-11--11-11-11--|
G|--------------------------------------|----------------------------------------------|
C|--------------------------------------|----------------------------------------------|
 |
D|--9--9--9--x-x-12-x-7--7-7-x-x-7-x-x--|--9--9--9--12-x-x-14-x-9---9-9-9-9-9-9-9--|
A|--9--9--9--x-x-9--x-9--9-9-x-x-9-x-x--|--9--9--9--9--x-x-9--x-9---9-9-9-9-9-9-9--|
F|--9--9--9--x-x-9--x-8--8-8-x-x-8-x-x--|--9--9--9--9--x-x-9--x-9------------------|
C|--11-11-11-x-x-11-x-9--9-9-x-x-9-x-x--|--11-11-11-11-x-x-11-x-11-----------------|
G|--------------------------------------|------------------------------------------|
C|--------------------------------------|------------------------------------------|

[Chorus]
(Guitar 1)
D|-------------------------------|-------------------------------|
A|-------------------------------|-------------------------------|
F|--6--6--6-6-6-6--8-8--8-8-8-8--|-------------------------------|
C|--6--6--6-6-6-6--9-9--9-9-9-9--|--6--6--6-6-6-6--6-6--6-6-6-6--|
G|--4--4--4-4-4-4--7-7--7-7-7-7--|--7--7--7-7-7-7--7-7--7-7-7-7--|
C|-------------------------------|--7--7--7-7-7-7--7-7--7-7-7-7--|
 |
D|-------------------------------|--------------------------------|
A|-------------------------------|--------------------------------|
F|-------------------------------|--------------------------------|
C|--6--6--6-6-6-9--9-9--9-9-9-9--|--6--6--6-6-6-6-----------------|
G|--7--7--7-7-7-9--9-9--9-9-9-9--|--7--7--7-7-7-7--7-7-7-7/9-9-9--|
C|--6--6--6-6-6-9--9-9--9-9-9-9--|--7--7--7-7-7-7-----------------|
 |
D|-------------------------------|-------------------------------|
A|-------------------------------|-------------------------------|
F|--6--6--6-6-6-6--8-8--8-8-8-8--|-------------------------------|
C|--6--6--6-6-6-6--9-9--9-9-9-9--|--6--6--6-6-6-6--6-6--6-6-6-6--|
G|--4--4--4-4-4-4--7-7--7-7-7-7--|--7--7--7-7-7-7--7-7--7-7-7-7--|
C|-------------------------------|--7--7--7-7-7-7--7-7--7-7-7-7--|
 |
D|-------------------------------|-----------------------------------|
A|-------------------------------|-----------------------------------|
F|-------------------------------|-----------------------------------|
C|--6--6--6-6-6-9--9-9--9-9-9-9--|--6-6-6-6-6-6-6-6-6-6-6-6-6-6-6-6--|
G|--7--7--7-7-7-9--9-9--9-9-9-9--|--7-7-7-7-7-7-7-7-7-7-7-7-7-7-7-7--|
C|--6--6--6-6-6-9--9-9--9-9-9-9--|--7-7-7-7-7-7-7-7-7-7-7-7-7-7-7-7--|

(Guitar 2)
D|-------------------------------------|--9--9--9-9-9-9--9-9--9-9-9-9--|
A|-----------------------9-9--9-9-9-9--|--9--9--9-9-9-9--9-9--9-9-9-9--|
F|--9---9---9--9--9--9---8-8--8-8-8-8--|-------------------------------|
C|--11--11--11-11-11-11----------------|-------------------------------|
G|-------------------------------------|-------------------------------|
C|-------------------------------------|-------------------------------|
 |
D|--9--9--9-9-9-9--9-9--9-9-9-9--|--9--9--9-9-9-9----------------|
A|--9--9--9-9-9-9--9-9--9-9-9-9--|--9--9--9-9-9-9----------------|
F|-------------------------------|-------------------------------|
C|-------------------------------|-------------------------------|
G|-------------------------------|-------------------------------|
C|-------------------------------|-------------------------------|
 |
D|-------------------------------------|--9--9--9-9-9-9--9-9--9-9-9-9--|
A|-----------------------9-9--9-9-9-9--|--9--9--9-9-9-9--9-9--9-9-9-9--|
F|--9---9---9--9--9--9---8-8--8-8-8-8--|-------------------------------|
C|--11--11--11-11-11-11----------------|-------------------------------|
G|-------------------------------------|-------------------------------|
C|-------------------------------------|-------------------------------|
 |
D|--9--9--9-9-9-9--9-9--9-9-9-9--|--9-9-9-9-9-9-9-9-9-9-9-9-9-9-9-9--|
A|--9--9--9-9-9-9--9-9--9-9-9-9--|--9-9-9-9-9-9-9-9-9-9-9-9-9-9-9-9--|
F|-------------------------------|-----------------------------------|
C|-------------------------------|-----------------------------------|
G|-------------------------------|-----------------------------------|
C|-------------------------------|-----------------------------------|

[Bridge]
(Guitar 1)
D|--------------------------|--------------------------|
A|--------------------------|--------------------------|
F|--------------------------|--------------------------|
C|--7----9--4----2----6--9--|--7----9--4----2----6--9--|
G|--------------------------|--------------------------|
C|--------------------------|--------------------------|
 |
D|-----------------------------------|-----------------------------------|
A|-----------------------------------|-----------------------------------|
F|-----------------------------------|-----------------------------------|
C|--7-7-7-7-7-7-7-7-7-7-7-7-9-9-9-9--|--4-4-4-4-4-4-4-4-4-4-4-4-4-4-4-4--|
G|-----------------------------------|-----------------------------------|
C|-----------------------------------|-----------------------------------|
 |
D|-----------------------------------|----------------------------------------------|
A|-----------------------------------|----------------------------------------------|
F|-----------------------------------|----------------------------------------------|
C|--2-2-2-2-2-2-2-2-2-2-2-2-6-6-6-6--|--9-9-9-9-9-9-9-9-9b-9b-9b-9b-9b-9br-9br-9br--|
G|-----------------------------------|----------------------------------------------|
C|-----------------------------------|----------------------------------------------|

(Guitar 2)
D|-----------------------------------|--11---11-----11---11-----11---11---11----|
A|--9---9-----9---9-----9---9---9----|--9--9-9--9-9-9--9-9--9-9-9--9-9--9-9--9--|
F|--9-9-9-9-9-9-9-9-9-9-9-9-9-9-9-9--|--9--9-9--9-9-9--9-9--9-9-9--9-9--9-9--9--|
C|-----------------------------------|------------------------------------------|
G|-----------------------------------|------------------------------------------|
C|-----------------------------------|------------------------------------------|
 |
D|---------------------------------------------------|-----------------------------------|
A|--9-----9--------9-----9--------9-----9-----9------|--9---9-----9---9-----9---9---9----|
F|--9--9--9--9--9--9--9--9--9--9--9--9--9--9--9--9---|--8-8-8-8-8-8-8-8-8-8-8-8-8-8-8-8--|
C|--11-11-11-11-11-11-11-11-11-11-11-11-11-11-11-11--|--9-9-9-9-9-9-9-9-9-9-9-9-9-9-9-9--|
G|---------------------------------------------------|-----------------------------------|
C|---------------------------------------------------|-----------------------------------|
 |
D|-----------------------------------|--11-11-11-11-11-11-11-11-11-11-11-11-11-11-11-11--|
A|--9-9-9-9-9-9-9-9-9-9-9-9-9-9-9-9--|--9--9--9--9--9--9--9--9--9--9--9--9--9--9--9--9---|
F|--9-9-9-9-9-9-9-9-9-9-9-9-9-9-9-9--|--9--9--9--9--9--9--9--9--9--9--9--9--9--9--9--9---|
C|-----------------------------------|---------------------------------------------------|
G|-----------------------------------|---------------------------------------------------|
C|-----------------------------------|---------------------------------------------------|
 |
D|---------------------------------------------------|-----------------------------------|
A|--9--9--9--9--9--9--9--9--9--9--9--9--9--9--9--9---|--9-9-9-9-9-9-9-9-9-9-9-9-9-9-9-9--|
F|--9--9--9--9--9--9--9--9--9--9--9--9--9--9--9--9---|--8-8-8-8-8-8-8-8-8-8-8-8-8-8-8-8--|
C|--11-11-11-11-11-11-11-11-11-11-11-11-11-11-11-11--|--9-9-9-9-9-9-9-9-9-9-9-9-9-9-9-9--|
G|---------------------------------------------------|-----------------------------------|
C|---------------------------------------------------|-----------------------------------|
 |
D|-----------------------------------|--11-11-11-11-11-11-11-11-11-11-11-11-11-11-11-11--|
A|--9-9-9-9-9-9-9-9-9-9-9-9-9-9-9-9--|--9--9--9--9--9--9--9--9--9--9--9--9--9--9--9--9---|
F|--9-9-9-9-9-9-9-9-9-9-9-9-9-9-9-9--|--9--9--9--9--9--9--9--9--9--9--9--9--9--9--9--9---|
C|-----------------------------------|---------------------------------------------------|
G|-----------------------------------|---------------------------------------------------|
C|-----------------------------------|---------------------------------------------------|
 |
D|---------------------------------------------------|-----------------------------------|
A|--9--9--9--9--9--9--9--9--9--9--9--9--9--9--9--9---|--9-9-9-9-9-9-9-9-9-9-9-9-9-9-9-9--|
F|--9--9--9--9--9--9--9--9--9--9--9--9--9--9--9--9---|--8-8-8-8-8-8-8-8-8-8-8-8-8-8-8-8--|
C|--11-11-11-11-11-11-11-11-11-11-11-11-11-11-11-11--|--9-9-9-9-9-9-9-9-9-9-9-9-9-9-9-9--|
G|---------------------------------------------------|-----------------------------------|
C|---------------------------------------------------|-----------------------------------|

[Pre-Chorus]
(Guitar 1)
D|--------|--------|
A|--------|--------|
F|-(Rest)-|-(Rest)-|
C|--------|--------|
G|--------|--------|
C|--------|--------|
 |
D|--------|-----------------------------|
A|--------|-----------------------------|
F|---9~---|-----------------------------|
C|---11~--|--------------6-6-6-6-6-6-6--|
G|---x----|--------------7-7-7-7-7-7-7--|
C|---11~--|--------------7-7-7-7-7-7-7--|

(Guitar 2)
D|--9--9--9--x-x-12-x-7--7-7-x-x-7-x-x--|--9--9--9--12-x-x-14-x-9---9--x-12--12-12-12--|
A|--9--9--9--x-x-9--x-9--9-9-x-x-9-x-x--|--9--9--9--9--x-x-9--x-9---9--x-9---9--9--9---|
F|--9--9--9--x-x-9--x-8--8-8-x-x-8-x-x--|--9--9--9--9--x-x-9--x-9---9--x-9---9--9--9---|
C|--11-11-11-x-x-11-x-9--9-9-x-x-9-x-x--|--11-11-11-11-x-x-11-x-11--11-x-11--11-11-11--|
G|--------------------------------------|----------------------------------------------|
C|--------------------------------------|----------------------------------------------|
 |
D|--9--9--9--x-x-12-x-7--7-7-x-x-7-x-x--|--9--9--9--12-x-x-14-x-9---9-9-9-9-9-9-9--|
A|--9--9--9--x-x-9--x-9--9-9-x-x-9-x-x--|--9--9--9--9--x-x-9--x-9---9-9-9-9-9-9-9--|
F|--9--9--9--x-x-9--x-8--8-8-x-x-8-x-x--|--9--9--9--9--x-x-9--x-9------------------|
C|--11-11-11-x-x-11-x-9--9-9-x-x-9-x-x--|--11-11-11-11-x-x-11-x-11-----------------|
G|--------------------------------------|------------------------------------------|
C|--------------------------------------|------------------------------------------|

[Chorus]
(Guitar 1)
D|-------------------------------|-------------------------------|
A|-------------------------------|-------------------------------|
F|--6--6--6-6-6-6--8-8--8-8-8-8--|-------------------------------|
C|--6--6--6-6-6-6--9-9--9-9-9-9--|--6--6--6-6-6-6--6-6--6-6-6-6--|
G|--4--4--4-4-4-4--7-7--7-7-7-7--|--7--7--7-7-7-7--7-7--7-7-7-7--|
C|-------------------------------|--7--7--7-7-7-7--7-7--7-7-7-7--|
 |
D|-------------------------------|--------------------------------|
A|-------------------------------|--------------------------------|
F|-------------------------------|--------------------------------|
C|--6--6--6-6-6-9--9-9--9-9-9-9--|--6--6--6-6-6-6-----------------|
G|--7--7--7-7-7-9--9-9--9-9-9-9--|--7--7--7-7-7-7--7-7-7-7/9-9-9--|
C|--6--6--6-6-6-9--9-9--9-9-9-9--|--7--7--7-7-7-7-----------------|
|
D|-------------------------------|-------------------------------|
A|-------------------------------|-------------------------------|
F|--6--6--6-6-6-6--8-8--8-8-8-8--|-------------------------------|
C|--6--6--6-6-6-6--9-9--9-9-9-9--|--6--6--6-6-6-6--6-6--6-6-6-6--|
G|--4--4--4-4-4-4--7-7--7-7-7-7--|--7--7--7-7-7-7--7-7--7-7-7-7--|
C|-------------------------------|--7--7--7-7-7-7--7-7--7-7-7-7--|
 |
D|-------------------------------|--------------------------------|
A|-------------------------------|--------------------------------|
F|-------------------------------|--------------------------------|
C|--6--6--6-6-6-9--9-9--9-9-9-9--|--6--6--6-6-6-6-----------------|
G|--7--7--7-7-7-9--9-9--9-9-9-9--|--7--7--7-7-7-7--7-7-7-7/9-9-9--|
C|--6--6--6-6-6-9--9-9--9-9-9-9--|--7--7--7-7-7-7-----------------|

(Guitar 2)
D|-------------------------------------|--9--9--9-9-9-9--9-9--9-9-9-9--|
A|-----------------------9-9--9-9-9-9--|--9--9--9-9-9-9--9-9--9-9-9-9--|
F|--9---9---9--9--9--9---8-8--8-8-8-8--|-------------------------------|
C|--11--11--11-11-11-11----------------|-------------------------------|
G|-------------------------------------|-------------------------------|
C|-------------------------------------|-------------------------------|
 |
D|--9--9--9-9-9-9--9-9--9-9-9-9--|--9--9--9-9-9-9----------------|
A|--9--9--9-9-9-9--9-9--9-9-9-9--|--9--9--9-9-9-9----------------|
F|-------------------------------|-------------------------------|
C|-------------------------------|-------------------------------|
G|-------------------------------|-------------------------------|
C|-------------------------------|-------------------------------|
 |
D|-------------------------------------|--9--9--9-9-9-9--9-9--9-9-9-9--|
A|-----------------------9-9--9-9-9-9--|--9--9--9-9-9-9--9-9--9-9-9-9--|
F|--9---9---9--9--9--9---8-8--8-8-8-8--|-------------------------------|
C|--11--11--11-11-11-11----------------|-------------------------------|
G|-------------------------------------|-------------------------------|
C|-------------------------------------|-------------------------------|
 |
D|--9--9--9-9-9-9--9-9--9-9-9-9--|--9--9--9-9-9-9----------------|
A|--9--9--9-9-9-9--9-9--9-9-9-9--|--9--9--9-9-9-9----------------|
F|-------------------------------|-------------------------------|
C|-------------------------------|-------------------------------|
G|-------------------------------|-------------------------------|
C|-------------------------------|-------------------------------|

[Outro]
D|---------------------------------------------------------------------------------------|
A|---------------------------------------------------------------------------------------|
F|---------------------------------------------------------------------------------------|
C|-----------------------------------------------------------------------------------11--|
G|--------------------------------------------------12-12-11-11-11-------12-12-12-12-11--|
C|--11-11-11-11-11-11-11-14-14-14-14-14-14-14-14-14----------------11-11-------------11--|


****************************************

|  x    mute string
|  \    slide down
|  h    hammer on
|  p    pull off
|  ~    sustained note

****************************************

            
            
Suggest correction
Creating personal tab
Creating personal tab
You can edit any tab online and save it as your Personal.

You can edit, replace or remove any tab part or add personal notes – all changes will be seen only by you.

Personal tabs can be accessed anytime from any device, even offline.
Learn more »
Give kudos to tab author, rate the tab!
1 2 3 4 5
comments
print report bad tab
guest
You may want to rate the tab now too:
select rating
Wanna post a correction for this tab? Suggest correction