Oops, an error
Loading. Please wait.

My Favorite Color bass

by Citizen
502 views 1 this week
2 commentsread comments
1 2 3 4 5
1 last vote to show rating
add to favorites
×
Save as Personal and add changes to this tab that will be seen only by you. Learn more ›
×
You can save this tab as Personal to edit and correct it or add notes. All changes will be seen only by you. Learn more »
launch autoscroll
font size
0
reset
guitar tuner
edit
Autoscroll
slow
fast
+/-
esc
set tempo
stop
Author
Difficulty
-------------------------------------------------------------------------------
                             MY FAVORITE COLOR - Citizen
-------------------------------------------------------------------------------
Tabbed by: cesare_moon
E-mail: 

Artist: Citizen
Album: Everybody Is Going To Heaven
Year: 2015

Tuning: EADG

Verse - 00.12 - 01.11

G|---------------------------------------------------------------------------|
D|---------------------------------------------------------------------------|
A|-----3-------3-------3--------3-------3--------3-------3-------3-----------|
E|---------------------------------------------------------------------------| x4

G|---------------------------------------------------------------------------|
D|---------------------------------------------------------------------------|
A|---------------------------------------------------------------------------|
E|-2-2-2-2-2-2-2-2-2-2-2-2-2-2-2-2-1-1-1-1-1-1-1-1-1-1-1-1-1-1-1-1-----------|

G|---------------------------------------------------------------------------|
D|---------------------------------------------------------------------------|
A|-----3-------3-------3--------3-------3--------3-------3-------3-----------|
E|---------------------------------------------------------------------------| x4

G|---------------------------------------------------------------------------|
D|---------------------------------------------------------------------------|
A|---------------------------------------------------------------------------|
E|-2-2-2-2-2-2-2-2-2-2-2-2-2-2-2-2-1-1-1-1-1-1-1-1-1-1-1-1-1-1-1-1-----------|

Chorus - 01.11 - 01.34

G|---------------------------------------------------------------------------|
D|---------4-4-3-3-2-2-2-2-----------------4-4-3-3-2-2-2-2-------------------|
A|-3-3-3-3-----------------4-4-4-4-3-3-3-3-----------------4-4-4-4-----------|
E|---------------------------------------------------------------------------|

G|---------------------------------------------------------------------------|
D|---------4-4-3-3-2-2-2-2-----------------4---3---2-------------------------|
A|-3-3-3-3-----------------4-4-4-4-3-3-3-3-----------------4-----------------|
E|---------------------------------------------------------------------------|

Verse - 01.34 - 02.03
G|---------------------------------------------------------------------------|
D|---------------------------------------------------------------------------|
A|-----3-------3-------3--------3-------3--------3-------3-------3-----------|
E|---------------------------------------------------------------------------| x4

G|---------------------------------------------------------------------------|
D|---------------------------------------------------------------------------|
A|---------------------------------------------------------------------------|
E|-2-2-2-2-2-2-2-2-2-2-2-2-2-2-2-2-1-1-1-1-1-1-1-1-1-1-1-1-1-1-1-1-----------|

Chorus - 02.03 - 02.38

G|---------------------------------------------------------------------------|
D|---------4-4-3-3-2-2-2-2-----------------4-4-3-3-2-2-2-2-------------------|
A|-3-3-3-3-----------------4-4-4-4-3-3-3-3-----------------4-4-4-4-----------|
E|---------------------------------------------------------------------------| x3

Outro - 2.38 - 03.01

G|---------------------------------------------------------------------------|
D|---------------------------------------------------------------------------|
A|-----3-------3-------3--------3-------3--------3-------3-------3-----------|
E|---------------------------------------------------------------------------| x4

Thank you! :)

| /  slide up
| \  slide down
| h  hammer-on
| p  pull-off
| ~  vibrato
| +  harmonic
| x  Mute note
===============================================================================

            
            
Suggest correction
Creating personal tab
Creating personal tab
You can edit any tab online and save it as your Personal.

You can edit, replace or remove any tab part or add personal notes – all changes will be seen only by you.

Personal tabs can be accessed anytime from any device, even offline.
Learn more »
Give kudos to tab author, rate the tab!
1 2 3 4 5
comments
print report bad tab
2 comments total.
0 reply
VintageBassline 1,760 Mar 05, 2016 01:31 AM

I think all the notes on the A string are 1 fret too high?

guest
You may want to rate the tab now too:
select rating
Wanna post a correction for this tab? Suggest correction