Oops, an error
Loading. Please wait.

Silo tab

version 1
version 1

Whole song

Interactive

by Citizen
2,291 views 30 this week
no commentswrite comment
1 2 3 4 5
x 4
add to favorites
×
Save as Personal and add changes to this tab that will be seen only by you. Learn more ›
×
You can save this tab as Personal to edit and correct it or add notes. All changes will be seen only by you. Learn more »
launch autoscroll
font size
0
reset
how to read this tab
guitar tuner
edit
Autoscroll
slow
fast
+/-
esc
set tempo
stop
----------------------------------------------------------------------------------------------------
                                     Citizen - Silo       
----------------------------------------------------------------------------------------------------

Band: Citizen
Song: Silo
Album: Silo
Track: 1

Tabbed by: AsILayDying504
Email: mdl4208@aol.com

Tuning: Drop C (CGCFAD)

*** CAPO ON FIRST FRET ***

>> Tab is in reference to capo - basically, 0 = 1ST FRET

>> This is how they play it live (yes you could just tune your guitar up and not use capo)



[0:00 - 0:59]


D|-------------------------------------------------------------------------------------------|
A|--------------6-----------8-----------------------------------3--------------------1-------|
F|--------------------------------------8-----8--------------------------------2--------2br--|
C|--------0---0-------0---0-------0---0---0-----0---------0---0-------0---0------------------|
G|--3/5-5---5-------5---5-------5---5-------5-----5-1---1---1-------1---1---0-----0----------|
C|-------------------------------------------------------------------------------------------|


D|-------------------------------------------------------------------------------------------|
A|--------------6-----------9-----------------------------------3--------------------1-------|
F|--------------------------------------8-----8--------------------------------2--------2br--|
C|------0---0---------0---0-------0---0---0-----0---------0---0-------0---0------------------|
G|--3/5---5---5-----5---5-------5---5-------5-----5-1---1---1-------1---1---0-----0----------|
C|-------------------------------------------------------------------------------------------|


D|----------------------------------------------------------------------------|
A|----------------------------------------------------------------------------|
F|----------------------------------------------------------------------------|
C|-------0--0--0--0--0--0--0--0--0--0--0--0--0--0--0--0--0--0--0--0--0--0--0--|
G|--3/5-5--5--5--5--5--5--5--5--5--5--5--1--1--1--1--1--1--0--0--0--0--0--0---|
C|----------------------------------------------------------------------------|

D|----------------------------------------------------------------------------|
A|----------------------------------------------------------------------------|
F|----------------------------------------------------------------------------|
C|-------0--0--0--0--0--0--0--0--0--0--0--0--0--0--0--0--0--0--0--0--0--0--0--|
G|--3/5-5--5--5--5--5--5--5--5--5--5--5--1--1--1--1--1--1--0--0--0--0--0--0---|
C|----------------------------------------------------------------------------|


D|----------------------------------------------------------------------------|
A|----------------------------------------------------------------------------|
F|----------------------------------------------------------------------------|
C|-------0--0--0--0--0--0--0--0--0--0--0--0--0--0--0--0--0--0--0--0--0--0--0--|
G|--3/5-5--5--5--5--5--5--5--5--5--5--5--1--1--1--1--1--1--0--0--0--0--0--0---|
C|----------------------------------------------------------------------------|


D|----------------------------------------------------------------------------|
A|----------------------------------------------------------------------------|
F|----------------------------------------------------------------------------|
C|-------0--0--0--0--0--0--0--0--0--0--0--0--0--0--0--0--0--0--0--0--0--0--0--|
G|--3/5-5--5--5--5--5--5--5--5--5--5--5--1--1--1--1--1--1--0--0--0--0--0--0---|
C|----------------------------------------------------------------------------|



[0:59 - 1:59]


GUITAR 1

D|-------------------------------------------------------------------------------------------|
A|--------------6-----------8-----------------------------------3--------------------1-------|
F|--------------------------------------8-----8--------------------------------2--------2br--|
C|--------0---0-------0---0-------0---0---0-----0---------0---0-------0---0------------------|
G|--3/5-5---5-------5---5-------5---5-------5-----5-1---1---1-------1---1---0-----0----------|
C|-------------------------------------------------------------------------------------------|
 |
 |
D|-------------------------------------------------------------------------------------------|
A|--------------6-----------9-----------------------------------3--------------------1-------|
F|--------------------------------------8-----8--------------------------------2--------2br--|
C|------0---0---------0---0-------0---0---0-----0---------0---0-------0---0------------------|
G|--3/5---5---5-----5---5-------5---5-------5-----5-1---1---1-------1---1---0-----0----------|
C|-------------------------------------------------------------------------------------------|
 |
 |
D|----------------------------------------------------------------------------|
A|----------------------------------------------------------------------------|
F|----------------------------------------------------------------------------|
C|-------0--0--0--0--0--0--0--0--0--0--0--0--0--0--0--0--0--0--0--0--0--0--0--|
G|--3/5-5--5--5--5--5--5--5--5--5--5--5--1--1--1--1--1--1--0--0--0--0--0--0---|
C|----------------------------------------------------------------------------|
 |
 |
D|----------------------------------------------------------------------------|
A|----------------------------------------------------------------------------|
F|----------------------------------------------------------------------------|
C|-------0--0--0--0--0--0--0--0--0--0--0--0--0--0--0--0--0--0--0--0--0--0--0--|
G|--3/5-5--5--5--5--5--5--5--5--5--5--5--1--1--1--1--1--1--0--0--0--0--0--0---|
C|----------------------------------------------------------------------------|
 |
 |
D|----------------------------------------------------------------------------|
A|----------------------------------------------------------------------------|
F|----------------------------------------------------------------------------|
C|-------0--0--0--0--0--0--0--0--0--0--0--0--0--0--0--0--0--0--0--0--0--0--0--|
G|--3/5-5--5--5--5--5--5--5--5--5--5--5--1--1--1--1--1--1--0--0--0--0--0--0---|
C|----------------------------------------------------------------------------|
 |
 |
D|----------------------------------------------------------------------------|
A|----------------------------------------------------------------------------|
F|----------------------------------------------------------------------------|
C|-------0--0--0--0--0--0--0--0--0--0--0--0--0--0--0--0--0--0--0--0--0--0--0--|
G|--3/5-5--5--5--5--5--5--5--5--5--5--5--1--1--1--1--1--1--0--0--0--0--0--0---|
C|----------------------------------------------------------------------------|



GUITAR 2

D|--0~----0~--0~---|  < REPEAT CHORD PROGRESSION 6 TIMES
A|--3~----6~--10~--|
F|--2~----7~--9~---|
G|-----------------|
C|-----------------|



[1:59 - 2:19]


D|--0--0-0-0-0--0-0-0--------------------------------------------------------|
A|--1--1-1-1-1--1-1-1--------------------------------------------------------|
F|--2--2-2-2-2--2-2-3-2--2-2-2-2--2-2-2-2--2-2-2-2--2-2-2-2--2-2-2-2--2-2-2--|
C|--3--3-3-3-3--3-3-3-3--3-3-3-3--3-3-3-3--3-3-3-3--3-3-3-3--3-3-3-3--3-3-3--|
G|--------------------4--4-4-4-4--4-4-4-5--5-5-5-5--5-5-5-5--5-5-5-5--5-5-5--|
C|---------------------------------------------------------------------------|


D|--0--0-0-0-0--0-0-0----------------------------------------------------------|
A|--1--1-1-1-1--1-1-1----------------------------------------------------------|
F|--2--2-2-2-2--2-2-3-2--2-2-2-2--2-2-2-2--2-2-2-2--2-2-2-2--2-2-2-2--2-2-2-5--|
C|--3--3-3-3-3--3-3-3-3--3-3-3-3--3-3-3-3--3-3-3-3--3-3-3-3--3-3-3-3--3-3-3-5--|
G|--------------------4--4-4-4-4--4-4-4-5--5-5-5-5--5-5-5-5--5-5-5-5--5-5-5-5--|
C|-----------------------------------------------------------------------------|



[2:19 - 2:59]


GUITAR 1

D|----------------------------------------------------------------------------|
A|----------------------------------------------------------------------------|
F|----------------------------------------------------------------------------|
C|-------0--0--0--0--0--0--0--0--0--0--0--0--0--0--0--0--0--0--0--0--0--0--0--|
G|--3/5-5--5--5--5--5--5--5--5--5--5--5--1--1--1--1--1--1--0--0--0--0--0--0---|
C|----------------------------------------------------------------------------|
 |
 |
D|----------------------------------------------------------------------------|
A|----------------------------------------------------------------------------|
F|----------------------------------------------------------------------------|
C|-------0--0--0--0--0--0--0--0--0--0--0--0--0--0--0--0--0--0--0--0--0--0--0--|
G|--3/5-5--5--5--5--5--5--5--5--5--5--5--1--1--1--1--1--1--0--0--0--0--0--0---|
C|----------------------------------------------------------------------------|
 |
 |
D|----------------------------------------------------------------------------|
A|----------------------------------------------------------------------------|
F|----------------------------------------------------------------------------|
C|-------0--0--0--0--0--0--0--0--0--0--0--0--0--0--0--0--0--0--0--0--0--0--0--|
G|--3/5-5--5--5--5--5--5--5--5--5--5--5--1--1--1--1--1--1--0--0--0--0--0--0---|
C|----------------------------------------------------------------------------|
 |
 |
D|----------------------------------------------------------------------------|
A|----------------------------------------------------------------------------|
F|----------------------------------------------------------------------------|
C|-------0--0--0--0--0--0--0--0--0--0--0--0--0--0--0--0--0--0--0--0--0--0--0--|
G|--3/5-5--5--5--5--5--5--5--5--5--5--5--1--1--1--1--1--1--0--0--0--0--0--0---|
C|----------------------------------------------------------------------------|



GUITAR 2   (10 = FRET 10)

D|----------------------------------------------------------------------------------|
A|----------------------------------------------------------------------------------|
F|----------------------------------------------------------------------------------|
C|-------0--0--0--0--0--0--0--0--0--0--0--0--0--0--0--0--0---0---0---0---0---0---0--|
G|--3/5-5--5--5--5--5--5--5--5--5--5--5--8--8--8--8--8--8--10--10--10--10--10--10---|
C|----------------------------------------------------------------------------------|
 |
 |
D|----------------------------------------------------------------------------------|
A|----------------------------------------------------------------------------------|
F|----------------------------------------------------------------------------------|
C|-------0--0--0--0--0--0--0--0--0--0--0--0--0--0--0--0--0---0---0---0---0---0---0--|
G|--3/5-5--5--5--5--5--5--5--5--5--5--5--8--8--8--8--8--8--10--10--10--10--10--10---|
C|----------------------------------------------------------------------------------|
 |
 |
D|----------------------------------------------------------------------------------|
A|----------------------------------------------------------------------------------|
F|----------------------------------------------------------------------------------|
C|-------0--0--0--0--0--0--0--0--0--0--0--0--0--0--0--0--0---0---0---0---0---0---0--|
G|--3/5-5--5--5--5--5--5--5--5--5--5--5--8--8--8--8--8--8--10--10--10--10--10--10---|
C|----------------------------------------------------------------------------------|
 |
 |
D|----------------------------------------------------------------------------------|
A|----------------------------------------------------------------------------------|
F|----------------------------------------------------------------------------------|
C|-------0--0--0--0--0--0--0--0--0--0--0--0--0--0--0--0--0---0---0---0---0---0---0--|
G|--3/5-5--5--5--5--5--5--5--5--5--5--5--8--8--8--8--8--8--10--10--10--10--10--10---|
C|----------------------------------------------------------------------------------|



[2:59 - 3:18]


D|--0-----------------------------------------------------------------0~---------------------|
A|--1--1-1-1-1-1--1-1-1-1--------------------------------------------------------------------|
F|--2--2-2-2-2-2--2-2-3-2-2--2-2-2-2-5--5-3-3-3-2--2-2-2-2-2--2-2-2-2-2--2-2-2-2-2--2-2-2-2--|
C|--3--3-3-3-3-3--3-3-3-3-3--3-3-3-3-3--3-3-3-3-3--3-3-3-3-3--3-3-3-3-3--3-3-3-3-3--3-3-3-3--|
G|------------------------4--4-4-4-4-4--4-4-4-4-5--5-5-5-5-5--5-5-5-5-5--5-5-5-5-5--5-5-5-5--|
C|-------------------------------------------------------------------------------------------|
 |
 |
D|--0-----------------------------------------------------------------0~------------|
A|--1--1-1-1-1-1--1-1-1-1-----------------------------------------------------------|
F|--2--2-2-2-2-2--2-2-3-2-2--2-2-2-2-5--5-3-3-3-2--2-2-2-2-2--2-2-2-2-2--2-2-2-2-2--|
C|--3--3-3-3-3-3--3-3-3-3-3--3-3-3-3-3--3-3-3-3-3--3-3-3-3-3--3-3-3-3-3--3-3-3-3-3--|
G|------------------------4--4-4-4-4-4--4-4-4-4-5--5-5-5-5-5--5-5-5-5-5--5-5-5-5-5--|
C|----------------------------------------------------------------------------------|



[3:18 - 3:58]


GUITAR 1

D|-------------------------------------------------------------------------------------------|
A|-------------------------------------------------------------------------------------------|
F|--2--2-2-2-2-2--2-2-2-2-2--2-2-2-2-2--2-2-2-2----------------------------------------------|
C|--0--0-0-0-0-0--0-0-0-0-0--0-0-0-0-0--0-0-0-0-3--3-3-3-3-3--3-3-3-3-7--7-7-7-7-7--7-7-7-7--|
G|--0--0-0-0-0-0--0-0-0-0-0--0-0-0-0-0--0-0-0-0-3--3-3-3-3-3--3-3-3-3-5--5-5-5-5-5--5-5-5-5--|
C|--0--0-0-0-0-0--0-0-0-0-0--0-0-0-0-0--0-0-0-0-3--3-3-3-3-3--3-3-3-3-5--5-5-5-5-5--5-5-5-5--|
 |
 |
D|-------------------------------------------------------------------------------------------|
A|-------------------------------------------------------------------------------------------|
F|--2--2-2-2-2-2--2-2-2-2-2--2-2-2-2-2--2-2-2-2----------------------------------------------|
C|--0--0-0-0-0-0--0-0-0-0-0--0-0-0-0-0--0-0-0-0-3--3-3-3-3-3--3-3-3-3-7--7-7-7-7-7--7-7-7-7--|
G|--0--0-0-0-0-0--0-0-0-0-0--0-0-0-0-0--0-0-0-0-3--3-3-3-3-3--3-3-3-3-5--5-5-5-5-5--5-5-5-5--|
C|--0--0-0-0-0-0--0-0-0-0-0--0-0-0-0-0--0-0-0-0-3--3-3-3-3-3--3-3-3-3-5--5-5-5-5-5--5-5-5-5--|
 |
 |
D|-------------------------------------------------------------------------------------------|
A|-------------------------------------------------------------------------------------------|
F|--2-2-2-2-2--2-2-2-2-2--2-2-2-2-2--2-2-2-2-2-----------------------------------------------|
C|--0-0-0-0-0--0-0-0-0-0--0-0-0-0-0--0-0-0-0-0--3--3-3-3-3-3--3-3-3-3-7--7-7-7-7-7--7-7-7-7--|
G|--0-0-0-0-0--0-0-0-0-0--0-0-0-0-0--0-0-0-0-0--3--3-3-3-3-3--3-3-3-3-5--5-5-5-5-5--5-5-5-5--|
C|--0-0-0-0-0--0-0-0-0-0--0-0-0-0-0--0-0-0-0-0--3--3-3-3-3-3--3-3-3-3-5--5-5-5-5-5--5-5-5-5--|
 |
 |
D|-----------------------------------------------------------------------------------------------|
A|-----------------------------------------------------------------------------------------------|
F|--2--2-2-2-2-2--2-2-2-2-2--2-2-2-2-2--2-2-2-2----------------------------------------------2~--|
C|--0--0-0-0-0-0--0-0-0-0-0--0-0-0-0-0--0-0-0-0-3--3-3-3-3-3--3-3-3-3-7--7-7-7-7-7-7-7-7-7-5-0~--|
G|--0--0-0-0-0-0--0-0-0-0-0--0-0-0-0-0--0-0-0-0-3--3-3-3-3-3--3-3-3-3-5--5-5-5-5-5-5-5-5-5-5-0~--|
C|--0--0-0-0-0-0--0-0-0-0-0--0-0-0-0-0--0-0-0-0-3--3-3-3-3-3--3-3-3-3-5--5-5-5-5-5-5-5-5-5-5-0~--|



GUITAR 2

D|-------------------------------------------------------------------------------------------------|
A|-6-6-6-6-6-6-6-6-6-6-6-6-8-8-8-8-8-8-------------------------------------------------------------|
F|-------------------------------------8-8-8-8-8-8-8-8-8-8-8-8-7-7-7-7-7-7-5-5-5-5-5-5-------------|
C|-------------------------------------------------------------------------------------7-7-7-7-7-7-|
G|-------------------------------------------------------------------------------------------------|
C|-------------------------------------------------------------------------------------------------|
 |
 |
D|-------------------------------------------------------------------------------------------------|
A|-------------6-6-6-6-6-6-9-9-9-9-9-9-------------------------------------------------------------|
F|-------------------------------------8-8-8-8-8-8-8-8-8-8-8-8-7-7-7-7-7-7-5-5-5-5-5-5-------------|
C|-7-7-7-7-7-7-------------------------------------------------------------------------7-7-7-7-7-7-|
G|-------------------------------------------------------------------------------------------------|
C|-------------------------------------------------------------------------------------------------|
 |
 |
D|-------------------------------------------------------------------------------------------------|
A|-------------------------------------------------------------------------------------------------|
F|--2-2-2-2-2--2-2-2-2-2--2-2-2-2-2--2-2-2-2-2----------------7-7-7-7-7-7-5-5-5-5-5-5--------------|
C|--0-0-0-0-0--0-0-0-0-0--0-0-0-0-0--0-0-0-0-0----------------------------------------7-7-7-7-7-7--|
G|--0-0-0-0-0--0-0-0-0-0--0-0-0-0-0--0-0-0-0-0-----------------------------------------------------|
C|--0-0-0-0-0--0-0-0-0-0--0-0-0-0-0--0-0-0-0-0-----------------------------------------------------|
 |
 |
D|-------------------------------------------------------------------------------------------------|
A|-------------6-6-6-6-6-6-9-9-9-9-9-9-------------------------------------------------------------|
F|-------------------------------------8-8-8-8-8-8-8-8-8-8-8-8-7-7-7-7-7-7-5-5-5-5-5-5-------------|
C|-7-7-7-7-7-7-------------------------------------------------------------------------7-7-7-7-7br-|
G|-------------------------------------------------------------------------------------------------|
C|-------------------------------------------------------------------------------------------------|



[3:58 - 4:29]


D|-------------------------------------------------------------------------------------------|
A|--------------6-----------8-----------------------------------3--------------------1-------|
F|--------------------------------------8-----8--------------------------------2--------2br--|
C|--------0---0-------0---0-------0---0---0-----0---------0---0-------0---0------------------|
G|--3/5-5---5-------5---5-------5---5-------5-----5-1---1---1-------1---1---0-----0----------|
C|-------------------------------------------------------------------------------------------|


D|-----------------------------------------------------------------------------------------------|
A|--------------6-----------9-----------------------------------3-----------1--------------------|
F|--------------------------------------8-----8--------------------------------------------2br~--|
C|------0---0---------0---0-------0---0---0-----0---------0---0-------0---0-------0---0----------|
G|--3/5---5---5-----5---5-------5---5-------5-----5-1---1---1-------1---1-------1---1---0--------|
C|-----------------------------------------------------------------------------------------------|


D|------------------------|
A|------------------------|
F|--2-2-2-2-2--2-2-2-2-2--|
C|--0-0-0-0-0--0-0-0-0-0--|
G|--0-0-0-0-0--0-0-0-0-0--|
C|--0-0-0-0-0--0-0-0-0-0--|



[END]



************************************

| /   slide up
| br  Bend release
| ~   held note

************************************
Suggest correction
Creating personal tab
Creating personal tab
You can edit any tab online and save it as your Personal.

You can edit, replace or remove any tab part or add personal notes – all changes will be seen only by you.

Personal tabs can be accessed anytime from any device, even offline.
Learn more »
comments
print report bad tab
guest
You may want to rate the tab now too:
select rating
Wanna post a correction for this tab? Suggest correction