Oops, an error
Loading. Please wait.

Tracking Time chords

version 2
version 2

Whole song

Interactive

by Citizen
1,363 views 1 this week
3 commentsread comments
1 2 3 4 5
x 6
add to favorites
×
Save as Personal and add changes to this tab that will be seen only by you. Learn more ›
×
You can save this tab as Personal to edit and correct it or add notes. All changes will be seen only by you. Learn more »
launch autoscroll
font size
0
reset
transpose
0
reset
display chords
guitar tuner
edit
Autoscroll
slow
fast
+/-
esc
set tempo
stop
Author
Strumming
There is no strumming pattern for this song yet. and get +5 IQ
Tabbed By: Fabio BlenderBR

 Enjoy!


 - Intro: 

F  C  Dm  Bb 
F  C  Dm  Bb 


 - Intro Riff:

e|-------------------------1-0--------|
B|-------------------1-111-----1h3-1--|
G|-0--0-2-222---0-2-------------------|
D|------------------------------------|
A|------------------------------------|  2x
E|------------------------------------|


 - Verse:

F                              C
  I hear you've ended up fine,
Dm                                   Bb
  And I've heard you're making out alright.
F                                      C
  I've heard you still don't like the cold outside,
Dm                                              Bb
  And I've heard you still got trouble tracking time.



 - Intro: 

F  C  Dm  Bb 
F  C  Dm  Bb 


 - Intro Riff:

e|-------------------------1-0--------|
B|-------------------1-111-----1h3-1--|
G|-0--0-2-222---0-2-------------------|
D|------------------------------------|
A|------------------------------------|  2x
E|------------------------------------|


 - Verse 2:

F                                 C
  And I heard, you said one time,
          Dm                            Bb
  That I never even fucking cross your mind.
F                               C
  I guess I'll act like that's fine,
                 Dm                               Bb
  But you should know that you cross mine all the time.



 - Intro: 

F  C  Dm  Bb 
F  C  Dm  Bb 
F  C  Dm  Bb 
F  C  Dm  Bb 


 - Intro Riff:

e|-------------------------1-0--------|
B|-------------------1-111-----1h3-1--|
G|-0--0-2-222---0-2-------------------|
D|------------------------------------|
A|------------------------------------|  2x
E|------------------------------------|

e|-------------------------1-0-1-3-6-5-3-1---6-5-3-1-----------|
B|-------------------1-111-------------------------------------|
G|-0--0-2-222---0-2------------------------------------2-0-----|
D|---------------------------------------------------------3---|
A|-------------------------------------------------------------|  1x
E|-------------------------------------------------------------|

__________
Tabbed by: Fabio BlenderBR

            
            
Suggest correction
Creating personal tab
Creating personal tab
You can edit any tab online and save it as your Personal.

You can edit, replace or remove any tab part or add personal notes – all changes will be seen only by you.

Personal tabs can be accessed anytime from any device, even offline.
Learn more »
comments
print report bad tab
3 comments total.
+1 reply
shosh-jort 393 Dec 28, 2015 01:06 AM

it's excellent, but for the outro riff move the last 3 notes down a string

+1 reply
xJamesDean 55 Jul 16, 2017 06:13 PM

Perfect tab man!

guest
You may want to rate the tab now too:
select rating
Wanna post a correction for this tab? Suggest correction