Oops, an error
Loading. Please wait.

Tracking Time Tab

version 2
version 2

Whole song

Interactive

37,745 views 27 this week
5 commentsread comments
1 2 3 4 5
x 14
add to favorites
launch autoscroll
font size
0
reset
how to read this tab
guitar tuner
×
Best way to learn
"Tracking Time"
Autoscroll
slow
fast
+/-
esc
set tempo
stop
Citizen
Tracking Time
Acoustic

E Standard tuning

SUMMARY: [Intro] G A Em C
         [Verse] G G A A Em Em C C

[Chords]
  G    A    Em    C
e|--3----3----3----3--|
B|--3----3----3----3--|
G|--0----2----0----0--|
D|--0----0----2----2--|
A|--2----0----2----3--|
E|--3---------0-------|

[Intro]
    G             A          Em           C
e|---------------|-------------|-1-0--------|
B|---------------|-----1-1-1-1-|-----1/3\1--|
G|--0--0-2-2-2-2-|-0-2---------|------------|
D|---------------|-------------|------------|
A|---------------|-------------|------------|
E|---------------|-------------|------------|

G                             A
I hear you've ended up fine,
Em                            C
And I've heard you're making out alright.
G                             A
I've heard you still don't like the cold outside,
Em                            C
And I've heard you still got trouble tracking time.

[Intro]
    G             A          Em           C
e|---------------|-------------|-1-0--------|
B|---------------|-----1-1-1-1-|-----1/3\1--|
G|--0--0-2-2-2-2-|-0-2---------|------------|
D|---------------|-------------|------------|
A|---------------|-------------|------------|
E|---------------|-------------|------------|

G                             A
And I heard, you said one time,
Em                            C
That I never even fucking cross your mind.
G                             A
I guess I'll act like that's fine,
Em                            C
But you should know that you cross mine all the time.

[Outro]
e|---------------|-------------|-1-0--1-3-6-5-3-1--|
B|---------------|-----1-1-1-1-|-------------------|
G|--0--0-2-2-2-2-|-0-2---------|-------------------|
D|---------------|-------------|-------------------|
A|---------------|-------------|-------------------|
E|---------------|-------------|-------------------|

e|--6-5-3-1----------------|
B|-------------------------|
G|-------------0-0--2-0----|
D|----------------------3--|
A|-------------------------|
E|-------------------------|

************************************

| /  Slide up
| \  Slide down

************************************
Suggest correction
comments
print report bad tab
5 comments total. Showing first comments.
+4 reply
Guitarbaddie 40 Mar 07, 2013 08:39 PM

Song is in the key of F

Try F, C, Dm, Bb

0 reply
jamiebowman 10 Aug 16, 2013 01:01 PM

Strumming patern?

0 reply
wfranta10 10 Feb 25, 2014 02:17 PM

Can someone give me a strumming pattern?

guest
You may want to rate the tab now too:
select rating
Wanna post a correction for this tab? Suggest correction