Oops, an error
Loading. Please wait.

Weave Me Into Yr Sin tab

by Citizen
451 views 1 this week
no commentswrite comment
1 2 3 4 5
2 more votes to show rating
add to favorites
×
Save as Personal and add changes to this tab that will be seen only by you. Learn more ›
×
You can save this tab as Personal to edit and correct it or add notes. All changes will be seen only by you. Learn more »
launch autoscroll
font size
0
reset
how to read this tab
guitar tuner
edit
Autoscroll
slow
fast
+/-
esc
set tempo
stop
Author
Difficulty
This is a fairly simple tab for Citizen's 'Weave Me (Into Yr Sin.)' If you wanted to you could tab out
the drones that the second guitar makes but it's a bit pointless because it's the same notes as the bass
which will probably be uploaded here soon.

This song is made up of 3 different sections and I'll put them in order for you

verse 1: this riff is repeated many times until the chorus
e|---------------------------------------------------------------------------|
B|---------------------------------------------------------------------------|
G|---------------------------------------------------------------------------|
D|---0---0---0---0---0---0---0---0-------------------------------------------|
A|---------------------------------------------------------------------------|
E|-3---3---6---5---10--10--10--10--------------------------------------------|

chorus: this riff is repeated until it goes back to the verse riff
e|---------------------------------------------------------------------------|
B|---------------------------------------------------------------------------|
G|---------------------------------------------------------------------------|
D|--------12----12----12----12-------12----12----12----12--------------------|
A|-----12----12----12----12-------12----12----12----12-----------------------|
E|--10-------------------------10--------------------------------------------|

verse 2: this riff is repeated many times until the second chorus
e|---------------------------------------------------------------------------|
B|---------------------------------------------------------------------------|
G|---------------------------------------------------------------------------|
D|---0---0---0---0---0---0---0---0-------------------------------------------|
A|---------------------------------------------------------------------------|
E|-3---3---6---5---10--10--10--10--------------------------------------------|

chorus: this riff is repeated until it goes to the bridge riff
e|---------------------------------------------------------------------------|
B|---------------------------------------------------------------------------|
G|---------------------------------------------------------------------------|
D|--------12----12----12----12-------12----12----12----12--------------------|
A|-----12----12----12----12-------12----12----12----12-----------------------|
E|--10-------------------------10--------------------------------------------|

bridge: this riff is repeated 8 times then it goes back to the chorus
e|---------------------------------------------------------------------------|
B|---------------------------------------------------------------------------|
G|----7-7-5---------------7-7-5----------------------------------------------|
D|----------7---7-7-5-----------7---7-7-5-7----------------------------------|
A|--------------------5------------------------------------------------------|
E|--6---------5---------6---------5------------------------------------------|

chorus: this riff is repeated until the end of the song
e|---------------------------------------------------------------------------|
B|---------------------------------------------------------------------------|
G|---------------------------------------------------------------------------|
D|--------12----12----12----12-------12----12----12----12--------------------|
A|-----12----12----12----12-------12----12----12----12-----------------------|
E|--10-------------------------10--------------------------------------------|

end note:
e|---------------------------------------------------------------------------|
B|---------------------------------------------------------------------------|
G|---------------------------------------------------------------------------|
D|---------------------------------------------------------------------------|
A|---------------------------------------------------------------------------|
E|--3(let ring)--------------------------------------------------------------|

CHORDS: 

Gm                       Dm
I am coming clean with myself
                  Gm                              Dm
I'm peeling off a film of a former me and you can tell
                        Gm
I wish you could see me now
Dm
I am fluorescent and new
Gm                         Dm
Faces in the fixtures are screaming at me once again
Gm                                Dm
Fabric fills the holes in their heads
                           Gm
See where it gets me in the end
Dm
Stay for a minute and listen

Dm    A         Dm     A
Bandaging... So bittersweet
     Dm                A
Your spirit glows, yet you don't know
Dm               A
Suit yourself fittingly
    Dm                  A
The haze surrounds only us
Gm                    Dm
Only us

Gm                           
Give the time to come to the mud
Dm
Weave me into your sin
Gm                               Dm                       Gm
I am strong and well-founded but you just don't like to admit it
Dm
Let your thoughts subside
Gm                          Dm
For every moment living in spite, I'm forever in debt
Gm 
Colored vision flooding my eyes
Dm                 Gm
Open your being to mine
Dm                          Gm      Dm
Leave the past behind

Dm   A          Dm    A
Softening... So bittersweet
    Dm              A
I'm holding on, yet no one knows
Dm               A
Suit yourself fittingly
    Dm                   A
The dust will swallow us whole

Bb
I am coming clean with myself
A
My darling, my darling
Bb                                  A                        Bb
Now that I've shed my skin, you can tell I'm brighter than ever
A
The flood has washed my bitter design
Bb
Polished in every way
A
I am coming clean into love
Bb
I'll die if you let me
A
I am coming clean with myself
Bb
My darling, my darling
A                                          Bb  A
Now that I've seen the world through your eyes, I'm brighter than ever before

Bandaging all of me

Dm      A        Dm    A
Selfish me... So bittersweet
  Dm                      A
A suspicious love for the sake of us
Dm               A
Suit yourself fittingly
   Dm              A
My arms are opened up
Dm               A
Suit yourself fittingly
    Dm                  A
The haze surrounds only us

            
            
Suggest correction
Creating personal tab
Creating personal tab
You can edit any tab online and save it as your Personal.

You can edit, replace or remove any tab part or add personal notes – all changes will be seen only by you.

Personal tabs can be accessed anytime from any device, even offline.
Learn more »
Give kudos to tab author, rate the tab!
1 2 3 4 5
comments
print report bad tab
guest
You may want to rate the tab now too:
select rating
Wanna post a correction for this tab? Suggest correction