Oops, an error
Loading. Please wait.

Something To Believe In Tab

1,618 views 3 this week
1 commentread comment
1 2 3 4 5
please rate
add to favorites
launch autoscroll
font size
0
reset
how to read this tab
guitar tuner
Autoscroll
slow
fast
+/-
esc
set tempo
stop
Help us to improve Ultimate-Guitar.com Take our survey!
×
Author
------------------------------------------------------------------------------
SOMETHING TO BELIEVE IN - CITIZEN COPE
-------------------------------------------------------------------------------
Tabbed by: Reece Robinson
Email: reece@rrmagic.com


How Clarence Actually Plays it:

UPDATED NOV 2015

Verse:

       A#       Gm     C7   Csus4    F7
e|-----3--------3------x------x------x-------------------------------------|
B|-----3--------3------1------x------x-------------------------------------|
G|-----3--------3------3------3------2-------------------------------------|
D|-----3--------5------2------1------1-------------------------------------|
A|-----5--------5------3------3------3-------------------------------------|
E|-------------------------------------------------------------------------|

Chorus: (Cause you keep giving me...) x2

       Gm     G#sus4    Gsus4   G#7   Gm
e|-----3---------x--------x------x-----3-------------------------------|
B|-----3---------x--------x------x-----3-------------------------------|
G|-----3---------8--------7------5-----3-------------------------------|
D|-----5---------6--------5------4-----5-------------------------------|
A|-----5---------8--------7------6-----5-------------------------------|
E|---------------------------------------------------------------------|


(Cause the walls are falling down): x2

       Gm     F    Bdim7   A#dim7
e|-----3------1------3------2---------------------------------------------|
B|-----3------1------1------0---------------------------------------------|
G|-----3------2------3------2---------------------------------------------|
D|-----5------3------2------1---------------------------------------------|
A|-----5------------------------------------------------------------------|
E|------------------------------------------------------------------------|


And of course how could I leave out the rare Citizen Cope solo?

(x2)

e|-----x------x------x------x------x-----x-----x-----x-----------------------|
B|-----x------x------7------7------x-----x-----x-----5-----------------------|
G|-----10-----9------9------7------7-----9-----7-----5-----------------------|
D|-----8------8------7------7------6-----6-----6-----5-----------------------|
A|-----10-----10-----9------9------8-----8-----8-----7-----------------------|
E|---------------------------------------------------------------------------|


5 stars for an accurate tab done from scratch?
Suggest correction
Give kudos to tab author, rate the tab!
1 2 3 4 5
comments
print report bad tab
1 comment total.
0 reply
dublanous 53 wrote on December 17 2012, 10:34 pm

Hi, Here are some corrections that I left out the first time around. It sounds much better like this:
(VERSE):
A# Gm C7 Csus4 F7
e|-----x--------x------x------x------x-------------------------------------|
B|-----3--------3------1------x------x-------------------------------------|
G|-----3--------3------3------3------2-------------------------------------|
D|-----3--------5------2------1------1-------------------------------------|
A|-----5--------x------3------3------3-------------------------------------|
E|-------------------------------------------------------------------------|

For the A# And Gm use your ring finger on the 5th fret and bar with index on the 3rd.

Also the chorus "Walls are falling down"
Actually:
A#, F, Bdim7 (As shown above), C

ENJOY!

guest
You may want to rate the tab now too:
select rating
Please do not post tabs as comments. Select "correction" instead!