Oops, an error
Loading. Please wait.

Pressure bass

461 views 1 this week
no commentswrite comment
1 2 3 4 5
2 more votes to show rating
add to favorites
×
Save as Personal and add changes to this tab that will be seen only by you. Learn more ›
×
You can save this tab as Personal to edit and correct it or add notes. All changes will be seen only by you. Learn more »
launch autoscroll
font size
0
reset
guitar tuner
edit
Autoscroll
slow
fast
+/-
esc
set tempo
stop
Difficulty
intermediate
This isn't actually citizen fish, but i doubt anyone is going to search culture shock.

culture shock was made a few years before citizen fish, different drummer and guitarist.
bass is the same so this counts. id recommend listening to the band if you like citizen
if you need help with that email me at d_a_v_e127@hotmail.com im sure a sample of the 
will be fine by dick lucas, the bass line is so good.

Intro:
G-------------------------|
D-4-5454-----4-5454-------|
A--------55----------55---|
E-------------------------|

Pre-Verse: x 2
G-----------------|
D----45-----------|
A--5---5--225-0---|
E-----------------|

Verse: x 2
G-------------------------4--7--------|
D----45-------------45---5----7-------|  + 1 Pre Verse Before Chorus
A-5----5--225-0--5----5---------------|
E-------------------------------------|

Chorus:x 4
G--7-------------------------------|
D-----454-------------------20202--|
A-5------50-300--023-030303--------|
E----------------------------------|

Second Intro:
G-----------------------------------------------|
D-5-4545-----5-4545------5-4545-----7-6767------|
A--------55----------55---------55----------77--|
E-----------------------------------------------|

Pre Verse x 2

Verse x 2 + 1 Pre Verse

Chorus x 4

Second Intro

Pre Verse x 2

Verse x 2 + No Pre Verse

Chorus x 2

Breakdown: x 4
G----------------------------------|
D----------------------------------|
A-5-0505-7888--870-----------------|
E-------------------0505--78-0808--|


Breakdown 2 = struming the rest of the song
G-----------------------------------------------|
D-----------------------------------------------|
A-555555788888770-------------------------------|
E-----------------5555557888888-----------------|

            
            
Suggest correction
Creating personal tab
Creating personal tab
You can edit any tab online and save it as your Personal.

You can edit, replace or remove any tab part or add personal notes – all changes will be seen only by you.

Personal tabs can be accessed anytime from any device, even offline.
Learn more »
Give kudos to tab author, rate the tab!
1 2 3 4 5
comments
print report bad tab
guest
Wanna post a correction for this tab? Suggest correction