Oops, an error
Loading. Please wait.

Go Let Me Save You tab

1,309 views 3 this week
no commentswrite comment
1 2 3 4 5
x 4
add to favorites
×
Save as Personal and add changes to this tab that will be seen only by you. Learn more ›
×
You can save this tab as Personal to edit and correct it or add notes. All changes will be seen only by you. Learn more »
launch autoscroll
font size
0
reset
how to read this tab
guitar tuner
edit
Autoscroll
slow
fast
+/-
esc
set tempo
stop
Author
[Intro]

   C#m                                  x4
eb|--------------------------------9-----|
Bb|9------9-----9-----9------12----------|
Gb|--9------9-----9-----9----------------|
Db|----11-----11----11----11----11----11-|
Ab|--------------------------------------|
Eb|--------------------------------------|

   C#m                                     E
eb|--------------------------------9-----|----------------------------------9---------|
Bb|9------9-----9-----9------12----------|9------9------9------9------12--------------|
Gb|--9------9-----9-----9----------------|--9------9------9------9--------------------|
Db|----11-----11----11----11----11----11-|----11-----11-----11-----11----11---11------|
Ab|--------------------------------------|--------------------------------------------|
Eb|--------------------------------------|--------------------------------------------|

   A                                      F#m
eb|--------------------------------9-----|----------------------------------9---------|
Bb|9------9-----9-----9------12----------|9------9------9------9------12--------------|
Gb|--9------9-----9-----9----------------|--9------9------9------9--------------------|
Db|----11-----11----11----11----11----11-|----11-----11-----11-----11----11---11------|
Ab|--------------------------------------|--------------------------------------------|
Eb|--------------------------------------|--------------------------------------------|


[Verse 1]

   C#m                                     E
eb|--------------------------------9-----|----------------------------------9---------|
Bb|9------9-----9-----9------12----------|9------9------9------9------12--------------|
Gb|--9------9-----9-----9----------------|--9------9------9------9--------------------|
Db|----11-----11----11----11----11----11-|----11-----11-----11-----11----11---11------|
Ab|--------------------------------------|--------------------------------------------|
Eb|--------------------------------------|--------------------------------------------|

   A                                      F#m                                       x2
eb|--------------------------------9-----|----------------------------------9---------|
Bb|9------9-----9-----9------12----------|9------9------9------9------12--------------|
Gb|--9------9-----9-----9----------------|--9------9------9------9--------------------|
Db|----11-----11----11----11----11----11-|----11-----11-----11-----11----11---11------|
Ab|--------------------------------------|--------------------------------------------|
Eb|--------------------------------------|--------------------------------------------|


[Pre-Chorus]

  C#m           E            A            F#m
e|0-----0--0---|0-----0--0--|0-----0--0--|------------------------------------------------|
B|0-----0--0---|0-----0--0--|0-----0--0--|------------------------------------------------|
G|6-----6--6---|9-----9--9--|2-----2--2--|11-11-11-11-13-13-13-13-14-14-14-14-13-13-13-13-|
D|6-----6--6---|9-----9--9--|2-----2--2--|------------------------------------------------|
A|4-----4--4---|7-----7--7--|0-----0--0--|9--9--9--9--11-11-11-11-12-12-12-12-11-11-11-11-|
E|-------------|------------|------------|------------------------------------------------|
   C#m
eb|--------------------------------9-----|----------------------------------9-------------|
Bb|9------9-----9-----9------12----------|9------9------9------9------12------------------|
Gb|--9------9-----9-----9----------------|--9------9------9------9------------------------|
Db|----11-----11----11----11----11----11-|----11-----11-----11-----11----11---11----------|
Ab|--------------------------------------|------------------------------------------------|
Eb|--------------------------------------|------------------------------------------------|


[Chorus]

  GTR 1 (Lead)
   C#m                               E
eb|---------------------------------|---------------------------------|
Bb|---0---0---0---0---0---0---0---0-|---0---0---0---0---0---0---0---0-|
Gb|-6---6---8---8---9---9---11--11--|-6---6---8---8---9---9---11--11--|
Db|---------------------------------|---------------------------------|
Ab|---------------------------------|---------------------------------|
Eb|---------------------------------|---------------------------------|
   A                                      B                   C             x2
eb|--------------------------------------|------------------------------------|
Bb|---0----0----0----0----0----0---0---0-|---0----0----0----0---0---0---0---0-|
Gb|14---14---13---13---11---11---9---9---|13---13---11---11---9---9---8---8---|
Db|--------------------------------------|------------------------------------|
Ab|--------------------------------------|------------------------------------|
Eb|--------------------------------------|------------------------------------|

 GTR 2 (Rhythm)
   C#m                              E
eb|--------------------------------|--------------------------------|
Bb|--------------------------------|--------------------------------|
Gb|6-6-6-6-6-6-6-6-6-6-6-6-6-6-6-6-|9-9-9-9-9-9-9-9-9-9-9-9-9-9-9-9-|
Db|6-6-6-6-6-6-6-6-6-6-6-6-6-6-6-6-|9-9-9-9-9-9-9-9-9-9-9-9-9-9-9-9-|
Ab|4-4-4-4-4-4-4-4-4-4-4-4-4-4-4-4-|7-7-7-7-7-7-7-7-7-7-7-7-7-7-7-7-|
Eb|--------------------------------|--------------------------------|

   A                                B               C              x2
eb|--------------------------------|--------------------------------|
Bb|--------------------------------|--------------------------------|
Gb|--------------------------------|4-4-4-4-4-4-4-4-5-5-5-5-5-5-5-5-|
Db|7-7-7-7-7-7-7-7-7-7-7-7-7-7-7-7-|4-4-4-4-4-4-4-4-5-5-5-5-5-5-5-5-|
Ab|7-7-7-7-7-7-7-7-7-7-7-7-7-7-7-7-|2-2-2-2-2-2-2-2-3-3-3-3-3-3-3-3-|
Eb|5-5-5-5-5-5-5-5-5-5-5-5-5-5-5-5-|--------------------------------|


[Break]

 GTR 1 (Lead)
   C#m                                  x2
eb|--------------------------------9-----|
Bb|9------9-----9-----9------12----------|
Gb|--9------9-----9-----9----------------|
Db|----11-----11----11----11----11----11-|
Ab|--------------------------------------|
Eb|--------------------------------------|

 GTR 2 (Rhythm)
   C#m
eb|--------------------------------------|
Bb|--------------------------------------|
Gb|6-------------------------------------|
Db|6-------------------------------------|
Ab|4-------------------------------------|
Eb|--------------------------------------|


[Verse 2]

   C#m                                     E
eb|--------------------------------9-----|----------------------------------9---------|
Bb|9------9-----9-----9------12----------|9------9------9------9------12--------------|
Gb|--9------9-----9-----9----------------|--9------9------9------9--------------------|
Db|----11-----11----11----11----11----11-|----11-----11-----11-----11----11---11------|
Ab|--------------------------------------|--------------------------------------------|
Eb|--------------------------------------|--------------------------------------------|

   A                                      F#m                                       x2
eb|--------------------------------9-----|----------------------------------9---------|
Bb|9------9-----9-----9------12----------|9------9------9------9------12--------------|
Gb|--9------9-----9-----9----------------|--9------9------9------9--------------------|
Db|----11-----11----11----11----11----11-|----11-----11-----11-----11----11---11------|
Ab|--------------------------------------|--------------------------------------------|
Eb|--------------------------------------|--------------------------------------------|


[Pre-Chorus]

  C#m           E            A            F#m
e|0-----0--0---|0-----0--0--|0-----0--0--|------------------------------------------------|
B|0-----0--0---|0-----0--0--|0-----0--0--|------------------------------------------------|
G|6-----6--6---|9-----9--9--|2-----2--2--|11-11-11-11-13-13-13-13-14-14-14-14-13-13-13-13-|
D|6-----6--6---|9-----9--9--|2-----2--2--|------------------------------------------------|
A|4-----4--4---|7-----7--7--|0-----0--0--|9--9--9--9--11-11-11-11-12-12-12-12-11-11-11-11-|
E|-------------|------------|------------|------------------------------------------------|


[Chorus]

  GTR 1 (Lead)
   C#m                               E
eb|---------------------------------|---------------------------------|
Bb|---0---0---0---0---0---0---0---0-|---0---0---0---0---0---0---0---0-|
Gb|-6---6---8---8---9---9---11--11--|-6---6---8---8---9---9---11--11--|
Db|---------------------------------|---------------------------------|
Ab|---------------------------------|---------------------------------|
Eb|---------------------------------|---------------------------------|
   A                                      B                   C             x2
eb|--------------------------------------|------------------------------------|
Bb|---0----0----0----0----0----0---0---0-|---0----0----0----0---0---0---0---0-|
Gb|14---14---13---13---11---11---9---9---|13---13---11---11---9---9---8---8---|
Db|--------------------------------------|------------------------------------|
Ab|--------------------------------------|------------------------------------|
Eb|--------------------------------------|------------------------------------|

  GTR 2 (Rhythm)
   C#m                              E
eb|--------------------------------|--------------------------------|
Bb|--------------------------------|--------------------------------|
Gb|6-6-6-6-6-6-6-6-6-6-6-6-6-6-6-6-|9-9-9-9-9-9-9-9-9-9-9-9-9-9-9-9-|
Db|6-6-6-6-6-6-6-6-6-6-6-6-6-6-6-6-|9-9-9-9-9-9-9-9-9-9-9-9-9-9-9-9-|
Ab|4-4-4-4-4-4-4-4-4-4-4-4-4-4-4-4-|7-7-7-7-7-7-7-7-7-7-7-7-7-7-7-7-|
Eb|--------------------------------|--------------------------------|

   A                                B               C              x2
eb|--------------------------------|--------------------------------|
Bb|--------------------------------|--------------------------------|
Gb|--------------------------------|4-4-4-4-4-4-4-4-5-5-5-5-5-5-5-5-|
Db|7-7-7-7-7-7-7-7-7-7-7-7-7-7-7-7-|4-4-4-4-4-4-4-4-5-5-5-5-5-5-5-5-|
Ab|7-7-7-7-7-7-7-7-7-7-7-7-7-7-7-7-|2-2-2-2-2-2-2-2-3-3-3-3-3-3-3-3-|
Eb|5-5-5-5-5-5-5-5-5-5-5-5-5-5-5-5-|--------------------------------|


[Solo]

  GTR 1 (Lead)
    C#m                             E
eb|--------------------------------|-------------------------------------------|
Bb|--------------------------------|-------------------------------------------|
Gb|--------------------------------|-------------------------------------------|
Db|-------------------------9---11-|11/14\11~~~~~~~~~~~------------------9--11-|
Ab|-11~~~~~~~~~~~~~~~~~11----------|------------------------------9--11--------|
Eb|\-------------------------------|-------------------------------------------|
   A                                B                  C
eb|--------------------------------|-------------------16b-------16b-----------|
Bb|--------------------------------|-------------------------------------------|
Gb|-8b---8-------------------------|8b--8--------------------------------------|
Db|--------------------------9-----|-------------------------------------------|
Ab|----------11~~~~~~-9--11-----11-|-------------------------------------------|
Eb|--------------------------------|-------------------------------------------|
   C#m
eb|16~~~~~~~----------/19-16----------19\16-12------16\12p9--------------9-----|
Bb|--------------------------17----------------14-----------12p9--12b~~----12p9|
Gb|-----------------------------18----------------13---------------------------|
Db|--------------------------------16------------------------------------------|
Ab|----------------------------------------------------------------------------|
Eb|----------------------------------------------------------------------------|
   E
eb|------9----------------------9----------------------------------------------|
Bb|----9---12p9---------------9---12p9-----------------------------------------|
Gb|11b---------12\11p9----11b---------12\11-9----9/11\9~~~---------------------|
Db|--------------------11---------------------11---------------------------11p9|
Ab|----------------------------------------------------------------------------|
Eb|----------------------------------------------------------------------------|
   A
eb|----------------------------------------------------------------------------|
Bb|----------------------------------------------------------------------------|
Gb|----------------------------------------------------------------------------|
Db|11~~~~~~~~~~~~~~~/13~~~~~~~~~~~~~~~~/14~~~~~~~~~~~~~~~~~/16~~~~~~~~~~~~~~~~~|
Ab|----------------------------------------------------------------------------|
Eb|----------------------------------------------------------------------------|
   B
eb|---------------12-16-12----------12-16-t19/21\19p16p12----------------------|
Bb|------------14----------14----14-----------------------14-------------------|
Gb|---------13----------------16-----------------------------13----------------|
Db|------14--------------------------------------------------------------------|
Ab|11-16-----------------------------------------------------------------------|
Eb|----------------------------------------------------------------------------|
   C                                                                     C#m
eb|-------------------------------------------------------------14-16-17|19b~~-|
Bb|----------------------------------------------------14-16-17---------|------|
Gb|-------------------------11-13-14----------13-14-16------------------|------|
Db|----------------11-13-14----------13-14-16---------------------------|------|
Ab|--------9-11-12------------------------------------------------------|------|
Eb|9-11-12--------------------------------------------------------------|------|

  GTR 2 (Rhythm)
   C#m                              E
eb|--------------------------------|--------------------------------|
Bb|--------------------------------|--------------------------------|
Gb|6-6-6-6-6-6-6-6-6-6-6-6-6-6-6-6-|9-9-9-9-9-9-9-9-9-9-9-9-9-9-9-9-|
Db|6-6-6-6-6-6-6-6-6-6-6-6-6-6-6-6-|9-9-9-9-9-9-9-9-9-9-9-9-9-9-9-9-|
Ab|4-4-4-4-4-4-4-4-4-4-4-4-4-4-4-4-|7-7-7-7-7-7-7-7-7-7-7-7-7-7-7-7-|
Eb|--------------------------------|--------------------------------|

   A                                B               C
eb|--------------------------------|--------------------------------|
Bb|--------------------------------|--------------------------------|
Gb|--------------------------------|4-4-4-4-4-4-4-4-5-5-5-5-5-5-5-5-|
Db|7-7-7-7-7-7-7-7-7-7-7-7-7-7-7-7-|4-4-4-4-4-4-4-4-5-5-5-5-5-5-5-5-|
Ab|7-7-7-7-7-7-7-7-7-7-7-7-7-7-7-7-|2-2-2-2-2-2-2-2-3-3-3-3-3-3-3-3-|
Eb|5-5-5-5-5-5-5-5-5-5-5-5-5-5-5-5-|--------------------------------|

   C#m                              E
eb|--------------------------------|--------------------------------|
Bb|--------------------------------|--------------------------------|
Gb|6-6-6-6-6-6-6-6-6-6-6-6-6-6-6-6-|9-9-9-9-9-9-9-9-9-9-9-9-9-9-9-9-|
Db|6-6-6-6-6-6-6-6-6-6-6-6-6-6-6-6-|9-9-9-9-9-9-9-9-9-9-9-9-9-9-9-9-|
Ab|4-4-4-4-4-4-4-4-4-4-4-4-4-4-4-4-|7-7-7-7-7-7-7-7-7-7-7-7-7-7-7-7-|
Eb|--------------------------------|--------------------------------|

   A                                B               C
eb|--------------------------------|--------------------------------|
Bb|--------------------------------|--------------------------------|
Gb|--------------------------------|4-4-4-4-4-4-4-4-5-5-5-5-5-5-5-5-|
Db|7-7-7-7-7-7-7-7-7-7-7-7-7-7-7-7-|4-4-4-4-4-4-4-4-5-5-5-5-5-5-5-5-|
Ab|7-7-7-7-7-7-7-7-7-7-7-7-7-7-7-7-|2-2-2-2-2-2-2-2-3-3-3-3-3-3-3-3-|
Eb|5-5-5-5-5-5-5-5-5-5-5-5-5-5-5-5-|--------------------------------|


[Chorus]

  GTR 1 (Lead)
   C#m                               E
eb|---------------------------------|---------------------------------|
Bb|---0---0---0---0---0---0---0---0-|---0---0---0---0---0---0---0---0-|
Gb|-6---6---8---8---9---9---11--11--|-6---6---8---8---9---9---11--11--|
Db|---------------------------------|---------------------------------|
Ab|---------------------------------|---------------------------------|
Eb|---------------------------------|---------------------------------|
   A                                      B                   C             x2
eb|--------------------------------------|------------------------------------|
Bb|---0----0----0----0----0----0---0---0-|---0----0----0----0---0---0---0---0-|
Gb|14---14---13---13---11---11---9---9---|13---13---11---11---9---9---8---8---|
Db|--------------------------------------|------------------------------------|
Ab|--------------------------------------|------------------------------------|
Eb|--------------------------------------|------------------------------------|

  GTR 2 (Rhythm)
   C#m                              E
eb|--------------------------------|--------------------------------|
Bb|--------------------------------|--------------------------------|
Gb|6-6-6-6-6-6-6-6-6-6-6-6-6-6-6-6-|9-9-9-9-9-9-9-9-9-9-9-9-9-9-9-9-|
Db|6-6-6-6-6-6-6-6-6-6-6-6-6-6-6-6-|9-9-9-9-9-9-9-9-9-9-9-9-9-9-9-9-|
Ab|4-4-4-4-4-4-4-4-4-4-4-4-4-4-4-4-|7-7-7-7-7-7-7-7-7-7-7-7-7-7-7-7-|
Eb|--------------------------------|--------------------------------|

   A                                B               C              x2
eb|--------------------------------|--------------------------------|
Bb|--------------------------------|--------------------------------|
Gb|--------------------------------|4-4-4-4-4-4-4-4-5-5-5-5-5-5-5-5-|
Db|7-7-7-7-7-7-7-7-7-7-7-7-7-7-7-7-|4-4-4-4-4-4-4-4-5-5-5-5-5-5-5-5-|
Ab|7-7-7-7-7-7-7-7-7-7-7-7-7-7-7-7-|2-2-2-2-2-2-2-2-3-3-3-3-3-3-3-3-|
Eb|5-5-5-5-5-5-5-5-5-5-5-5-5-5-5-5-|--------------------------------|


[Outro]

  GTR 1 (Rhythm)
   C#m                                  E
eb|------------------------------------|--------------------------------------|
Bb|------------------------------------|--------------------------------------|
Gb|6-6-6-6-8-8-8-8-9-9-9-9-11-11-11-11-|6-6-6-6-8-8-8-8-9-9-9-9-11-11-11-11---|
Db|------------------------------------|--------------------------------------|
Ab|4-4-4-4-6-6-6-6-7-7-7-7-9--9--9--9--|4-4-4-4-6-6-6-6-7-7-7-7-9--9--9--9----|
Eb|------------------------------------|--------------------------------------|

   A                                               B                       C            x2
eb|-----------------------------------------------|---------------------------------------|
Bb|-----------------------------------------------|---------------------------------------|
Gb|14-14-14-14-13-13-13-13-11-11-11-11-9--9--9--9-|13-13-13-13-11-11-11-11-9-9-9-9-8-8-8-8|
Db|-----------------------------------------------|---------------------------------------|
Ab|12-12-12-12-11-11-11-11-9--9--9--9--7--7--7--7-|11-11-11-11-9--9--9--9--7-7-7-7-6-6-6-6|
Eb|-----------------------------------------------|---------------------------------------|


  GTR 2 (Rhythm)
   C#m                              E
eb|--------------------------------|--------------------------------|
Bb|--------------------------------|--------------------------------|
Gb|6-6-6-6-6-6-6-6-6-6-6-6-6-6-6-6-|9-9-9-9-9-9-9-9-9-9-9-9-9-9-9-9-|
Db|6-6-6-6-6-6-6-6-6-6-6-6-6-6-6-6-|9-9-9-9-9-9-9-9-9-9-9-9-9-9-9-9-|
Ab|4-4-4-4-4-4-4-4-4-4-4-4-4-4-4-4-|7-7-7-7-7-7-7-7-7-7-7-7-7-7-7-7-|
Eb|--------------------------------|--------------------------------|

   A                                B               C              x2
eb|--------------------------------|--------------------------------|
Bb|--------------------------------|--------------------------------|
Gb|--------------------------------|4-4-4-4-4-4-4-4-5-5-5-5-5-5-5-5-|
Db|7-7-7-7-7-7-7-7-7-7-7-7-7-7-7-7-|4-4-4-4-4-4-4-4-5-5-5-5-5-5-5-5-|
Ab|7-7-7-7-7-7-7-7-7-7-7-7-7-7-7-7-|2-2-2-2-2-2-2-2-3-3-3-3-3-3-3-3-|
Eb|5-5-5-5-5-5-5-5-5-5-5-5-5-5-5-5-|--------------------------------|


[Ending]

 GTR 1 (Lead)
  C#m
eb|--------------------------------9-----|----------------------------------9---------|
Bb|9------9-----9-----9------12----------|9------9------9------9------12--------------|
Gb|--9------9-----9-----9----------------|--9------9------9------9--------------------|
Db|----11-----11----11----11----11----11-|----11-----11-----11-----11----11---11------|
Ab|--------------------------------------|--------------------------------------------|
Eb|--------------------------------------|--------------------------------------------|

eb|-------------------------------------||
Bb|9------------------------------------||
Gb|9------------------------------------||
Db|11-----------------------------------||
Ab|-------------------------------------||
Eb|-------------------------------------||

GTR 2 (Rhythm)

   C#m
eb|--------------------------------------|--------------------------------------------|
Bb|--------------------------------------|--------------------------------------------|
Gb|6-------------------------------------|--------------------------------------------|
Db|6-------------------------------------|--------------------------------------------|
Ab|4-------------------------------------|--------------------------------------------|
Eb|--------------------------------------|--------------------------------------------|

************************************

| p  Pull-off
| t  Tapping
| b  Bend
| /  Slide up
| \  Slide down
| ~  Vibrato

************************************

            
            
Suggest correction
Creating personal tab
Creating personal tab
You can edit any tab online and save it as your Personal.

You can edit, replace or remove any tab part or add personal notes – all changes will be seen only by you.

Personal tabs can be accessed anytime from any device, even offline.
Learn more »
comments
print report bad tab
guest
You may want to rate the tab now too:
select rating
Wanna post a correction for this tab? Suggest correction