Oops, an error
Loading. Please wait.

In Tenderness tab

version 1
version 1

Whole song

8,586 views 36 this week
2 commentsread comments
1 2 3 4 5
x 11
add to favorites
×
Save as Personal and add changes to this tab that will be seen only by you. Learn more ›
×
You can save this tab as Personal to edit and correct it or add notes. All changes will be seen only by you. Learn more »
launch autoscroll
font size
0
reset
how to read this tab
guitar tuner
edit
Autoscroll
slow
fast
+/-
esc
set tempo
stop
-------------------------------------------------------------------------------
                             In Tenderness - Citizens
-------------------------------------------------------------------------------
Tabbed by: Rhyn033
E-mail: redrews2@sbcglobal.net

Tuning: Standard

This is one of my favorite worship songs. I figured out the song for my Youth Group 
Worship Band. This song is a lot of fun to play. Enjoy :-)

Intro: Piano Only

Verse:
e|------------------------------------------------------------------------------------------|
B|-------5------------5-------5------------5-------5----------5-------------4-----5p4-------|
G|----6------------6-------6------------6-------4----------4-------------4-----4-------6p4--|
D|-7------------7-------6------------6-------6----------6-------------4---------------------|
A|------------------------------------------------------------------------------------------|
E|------------------------------------------------------------------------------------------|


Repeat that through the Verse, PreChorus, and first Chorus

Interlude:
e|--9---9--9-9----9-9-9---12-12-12--12--12-12---7--7--7~----|
B|-10--10-1010----9-9-9---12-12-12--12--12-12---7--7--7~----|
G|--9---9--9-9----9-9-9---13-13-13--13- 13-13---8--8--8~----|
D|----------------------------------------------------------|
A|----------------------------------------------------------|
E|----------------------------------------------------------|

Verse x4
Pre-Chorus: play the verse riff twice.

Chorus 2:
e|-------------------------------------------------------------------------|
B|-10-10-10-10-10-10-10-10-9-9-9-9-9-9-9-9-5-5-5-5-5-5-5-5-4-4-4-4-4-4-4-4-|
G|-------------------------------------------------------------------------|x3
D|-------------------------------------------------------------------------|
A|-------------------------------------------------------------------------|
E|-------------------------------------------------------------------------|

e|--------------------------------------------------------------------------|
B|-5-5-5-5-5-5-5-5-5-5-5-5-5-5-5-5-9-9-9-9-9-9-9-9-4-4-4-4-4-4-4-4----------|
G|--------------------------------------------------------------------------|
D|--------------------------------------------------------------------------|
A|--------------------------------------------------------------------------|
E|--------------------------------------------------------------------------|

Post-Chorus:
e|--------------------------------------------------------------------------|
B|-10-10-10-10-10-10-10-10-9-9-9-9-9-9-9-9-5-5-5-5-5-5-5-5-4-4-4-4-4-4-4-4--|
G|--------------------------------------------------------------------------|x2
D|--------------------------------------------------------------------------|
A|--------------------------------------------------------------------------|
E|--------------------------------------------------------------------------|

Verse 3: A Capella for the first half, then come in with the verse riff about half 
way through and play it through the Pre-Chorus.

Chorus 2
PostChorus

Outro: The band sings the Chorus A Capella without any instruments.

Let me know what you think! Please Rate!
Suggest correction
Creating personal tab
Creating personal tab
You can edit any tab online and save it as your Personal.

You can edit, replace or remove any tab part or add personal notes – all changes will be seen only by you.

Personal tabs can be accessed anytime from any device, even offline.
Learn more »
comments
print report bad tab
2 comments total.
0 reply
davidhurd 30 Sep 11, 2014 07:08 AM, edited at 11:08 am

This is a good start to this song. I have a couple corrections.1. Here are more accurate chord voicings for the interlude:Interlude:e|--9---9--9--9---9--9--9--9---12-12-12--12---11--11--11~----|B|-10--10-10-10---9--9--9--9---12-12-12--12---12--12--12~----|G|--9---9--9--9---9--9--9--9---13-13-13--13---11--11--11~----|D|-11--11-11-11--11-11-11-11---14-14-14--14---13--13--13~----|A|-----------------------------------------------------------|E|-----------------------------------------------------------|2. Here is the correct second half of Chorus 2:e|--------------------------------------------------------------------------|B|-5-5-5-5-5-5-5-5-5-5-5-5-5-5-5-5-9-9-9-9-9-9-9-9-4-4-4-4-4-4-4-4----------|G|--------------------------------------------------------------------------|D|--------------------------------------------------------------------------|A|--------------------------------------------------------------------------|E|--------------------------------------------------------------------------|

+1 reply
davidhurd 30 Sep 11, 2014 07:16 AM

The formatting on my previous comment got messed up. Here it is again.

This is a good start to this song. I have two corrections.

1. Here are more accurate chord voicings for the interlude:

Interlude:
e|--9---9--9--9----9--9--9--9---12-12-12--12----11--11--11~----|
B|-10--10-10-10----9--9--9--9---12-12-12--12----12--12--12~----|
G|--9---9--9--9----9--9--9--9---13-13-13--13----11--11--11~----|
D|-11--11-11-11---11-11-11-11---14-14-14--14----13--13--13~----|
A|-------------------------------------------------------------|
E|-------------------------------------------------------------|

2. Here is the correct second part of Churus 2:

e|--------------------------------------------------------------------------|
B|-5-5-5-5-5-5-5-5-5-5-5-5-5-5-5-5-9-9-9-9-9-9-9-9-4-4-4-4-4-4-4-4----------|
G|--------------------------------------------------------------------------|
D|--------------------------------------------------------------------------|
A|--------------------------------------------------------------------------|
E|--------------------------------------------------------------------------|

guest
You may want to rate the tab now too:
select rating
Wanna post a correction for this tab? Suggest correction