Oops, an error
Loading. Please wait.

Am Fenster intro tab

by City
8,801 views 15 this week
6 commentsread comments
1 2 3 4 5
x 7
add to favorites
×
Save as Personal and add changes to this tab that will be seen only by you. Learn more ›
×
You can save this tab as Personal to edit and correct it or add notes. All changes will be seen only by you. Learn more »
launch autoscroll
font size
0
reset
how to read this tab
guitar tuner
edit
Autoscroll
slow
fast
+/-
esc
set tempo
stop
Author
Difficulty
-------------------------------------------------------------------------------
                             Am Fenster - City
-------------------------------------------------------------------------------
Tabbed by: Mary G. Johnson
Email:dani.stecker@web.de

Tuning: Standard (EADGHE)


Hey,

da es hier nur die Akkorde zu diesem wunderschönen Stück deutscher Musikgeschichte gibt,
hab ich beschlossen, inspiriert durch ein tolles Cover, das Intro als Tabs hier rein zu
stellen. Ich hoffe es stimmt alles, denn vor allem die zweite Zeile is ziemlich 
schwierig. Ich hab noch teilweise die Akkorde zu den einzelnen Stellen geschrieben, dann kann man
die Sachen leichter nachvollziehen.^^

       Em Em     G  Am Bm  C  C  Bm G
e|---0-----0----------------------------------------0------------------------|
A|----2----2----------------------------------------2------------------------|
D|-----2---2----------------------------------------2------------------------|
G|------0--0-----0--2--4---5--5--4--0---0--2--4--5--0------------------------|
H|------0--0-----0--1--3---5--5--3--0---0--1--3--5--0------------------------|
E|------0--0----------------------------------------0------------------------|

e|---------------------------------------------------------------------------|
A|---------------------------------------------------------------------------|
D|--2-----2-----2-----2-----2------0-----0-----0-----0-----0-----------------|
G|---------------------------------------------------------------------------|
H|---------------------------------------------------------------------------|
E|---0h2p0-0h3p0-0h2p0-0h3p0-0h2p0--0h2p0-0h3p0-0h5p0-0h3p0-0h2p0------------|

e|---------------------------------------------------------------------------|
A|--3-----3-----3-----3-----3-----3-----3-----3-----3------------------------|
D|---------------------------------------------------------------------------|
G|---------------------------------------------------------------------------|
H|---------------------------------------------------------------------------|
E|---0h2p0-0h3p0-0h2p0-0h3p0-0h2p0-0h3p0-0h2p0-0h3p0-0h2p0-------------------|

                                     Em        D          C
e|--------------0--------------------0---------------------------------------|
A|---------------2--------------------2-------------------3------------------|
D|----------------2--------------------2------0------------2-----------------|
G|--0--2--4--5-----0-----0--2--4--5-----0----0-2-------2----0----------------|
H|--0--1--3--5------0----0--1--3--5-----0---0---3-----3------1---------------|
E|-------------------0------------------0--0-----2h3p2-------0---------------|

e|---------------------------------------------------------------------------|
A|--3------------------------------------------------------------------------|
D|---2---0-0-----------------------------------------------------------------|
G|----0--2-2-----------------------------------------------------------------|
H|-----1-3-3-----------------------------------------------------------------|
E|-----0-2-2-----------------------------------------------------------------|


Das mit dem Em D und C geht noch einige Zeit so weiter, später strummt man dann die
Akkorde einfach.

Nach dem Teil mit dem Zimmer in dem er aufsteht und die Gitarre nimmt summt er zur
Gitarre. Macht da am besten Slides dann kriegt ihr auch dieses Quietschgeräusch schön hin.^^
Die Tabs davon sind:

e|---------------------------------------------------------------------------|
A|---------------------------------------------------------------------------|
D|--5---5--7--8--7--5--5--3--5-----------------------------------------------|
G|---------------------------------------------------------------------------|
H|---------------------------------------------------------------------------|
E|---------------------------------------------------------------------------|

Dann strummt er zuerst G (alle im Barre), dann Gm und F, also die Grundakkorde ein paar
mal und summt wieder dazu. Zum Schluss strummt er das Gm einfach von unten nach oben,
also von der hohen E-Saite bis zur Tiefen.
Ich glaube die schnipst er mit dem Finger an oder sowas. Probiert ein wenig rum. Der
Rest des Liedes is ja bekannt. Ich hoffe ich konnte euch weiterhelfen.


************************************

| /   slide up
| \   slide down
| h   hammer-on
| p   pull-off
| ~   vibrato
| +   harmonic
| x   Mute note
| b   Bend
| pb  Pre-bend
| br  Bend release
| pbr Pre-bend release
| brb Bend release bend

************************************

            
            
Suggest correction
Creating personal tab
Creating personal tab
You can edit any tab online and save it as your Personal.

You can edit, replace or remove any tab part or add personal notes – all changes will be seen only by you.

Personal tabs can be accessed anytime from any device, even offline.
Learn more »
comments
print report bad tab
6 comments total. Showing first comments.
0 reply
Kai68 10 Aug 03, 2014 11:07 PM

Sieht ziemlich gut aus. Nachher gleich mal probieren

0 reply
schreiberehle 10 Dec 08, 2014 10:26 AM

Danke! Das ist super! Zusammen mit dem Video eines Norddeutschen (Wolle ausm Norden https://www.youtube.com/watch?v=F30eWapNIdU)
kann ich mir das Lied jetzt zusammenpuzzeln.

0 reply
siccohr 10 Mar 20, 2015 07:16 AM

Super Sache :) Ich bin die tabs anders gewöhnt (herumgedrehte Reihenfolge) Soweit ich weiß schreibt man das tiefe E groß und das hohe klein, aber die kleine Umgewöhnung ist zu verkraften. Vielen dank.

guest
You may want to rate the tab now too:
select rating
Wanna post a correction for this tab? Suggest correction