Oops, an error
Loading. Please wait.

As Much As I Ever Could Tab

version 2
version 2

Whole song

50,575 views 12 this week
2 commentsread comments
1 2 3 4 5
x 7
add to favorites
launch autoscroll
font size
0
reset
how to read this tab
guitar tuner
Autoscroll
slow
fast
+/-
esc
set tempo
stop
Help us to improve Ultimate-Guitar.com Take our survey!
×
Author
Tuning
D A D G B E
Tuning: Drop D

Verse(basic chords)
|------7-------0---------------------------0--0~-----|
|------8-------0---------------------------0--0~-----|
|------9-------5-------5-7p5---------------2--1~-----|
|------10------7---5h7--------7------------2--2~-----|
|---7--7-------7-----------------5h7-5-3---2--2~-----|
|-7----7--2s6--6-----------------3-3-3-3-------------|

Chorus
|-0---0---0-------|
|-1---3---1-------|
|-0---4---2-------|
|-2---5---3-------|
|-3---5---3-------|
|-x---x---x-------|

Bridge (not sure if this is exactly right, but its something like this)

|-0---0---0----|
|-0---0---0----|
|-4---0---0----|
|-5---5---2----|
|-5---7---3----|
|-5---7---3----|

Ok, so thats the basic tab, theres little hammer-ons and pull-offs in different places, 
you can figure them out if you want :)
Suggest correction
comments
print report bad tab
2 comments total.
-1 reply
Jamesy89 20 Aug 04, 2008 05:16 PM

Chorus
|-0-0---0---0----------3--1---|
|-1-0h1h3---3-3--1-----1--1---|
|-0-0-0-0---4h5--0h2p0-2--2---|
|-2-2-2-3---5-5--3-----3--0---|
|-3-3-3-2---5-0--3-----0--3---|
|-x---x---x-x-x--x-----x--x---|

0 reply
ryan.ginn 10 Dec 27, 2009 10:22 PM

Bravo, man. Thank you.

guest
You may want to rate the tab now too:
select rating
Wanna post a correction for this tab? Suggest correction