Oops, an error
Loading. Please wait.

Blood chords

version 2
version 2

Whole song

2,530 views 60 this week
no commentswrite comment
1 2 3 4 5
x 5
add to favorites
×
Save as Personal and add changes to this tab that will be seen only by you. Learn more ›
×
You can save this tab as Personal to edit and correct it or add notes. All changes will be seen only by you. Learn more »
launch autoscroll
font size
0
reset
transpose
0
reset
simplify chords
display chords
guitar tuner
edit
Autoscroll
slow
fast
+/-
esc
set tempo
stop
Strumming
There is no strumming pattern for this song yet. and get +5 IQ
-----------------------
Blood – City And Colour
-----------------------

Capo 2nd fret

 Chords:
  Dsus2/E F#m11 Dsus2/G Aadd9    F#m F#m11 F#sus Em Em9
e|--0-------0-----0-------0---|-------0--------------2---|
B|--3-------0-----3-------0---|---2---0------0---0---0---|
G|--2-------2-----2-------6---|---2---2------4---0---0---|
D|--0-------4-----0-------7---|---4---4------4---2---2---|
A|--0-------4-----x-------7---|---4---4------4---2---2---|
E|--0-------2-----3-------5---|---2---2------2---0---0---|


[Intro]

Fingerpicking pattern for the intro and throughout the song:
  Dsus2/E            F#m11               Dsus2/G           Aadd9
e|---------0------2p0-------------------|---------0-------0--------------------|
B|---0h3-----0h3------------------------|---0h3-----0h3------------------------|
G|--2-------2--------------2---------2--|--2-------2-------------6---------6---| 2x
D|-----------------------0---0----------|----------------------0---0-----------|
A|-----------------------------4---4----|----------------------------7---7-----|
E|--0----0-------0-----2---------2------|--3----3-------3----5---------5-------|


[Verse]

Dsus2/E             F#m11
I'd like to take my time
          Dsus2/G            Aadd9
There's a good reason I must find
        Dsus2/E         F#m11
I wanna put a few miles down
            Dsus2/G                 Aadd9
I'd like to feel my two feet on the ground

  Dsus2/E                F#m11
Another year's hard work done
     Dsus2/G                    Aadd9
I've paid for it with all of my blood
     Dsus2/E                 F#m11
I've given you more than I'm worth
        Dsus2/G                 Aadd9
I wanna dig my fingers into the earth


[Chorus]

                       F#m    F#m11  F#sus Em    Em9
Because I know there's beauty buried be –- neath
    F#m     F#m11   F#sus Em   Em9
The surface of what we    seek
F#m       F#m11 F#sus Em   Em9
Old hopes left  un –- felt
           F#m   F#m11    F#sus   Em   Em9
They lie between the wish and the well

  Dsus2/E            F#m11               Dsus2/G           Aadd9
e|---------0------2p0-------------------|---------0-------0--------------------|
B|---0h3-----0h3------------------------|---0h3-----0h3------------------------|
G|--2-------2--------------2---------2--|--2-------2-------------6---------6---| 2x
D|-----------------------0---0----------|----------------------0---0-----------|
A|-----------------------------4---4----|----------------------------7---7-----|
E|--0----0-------0-----2---------2------|--3----3-------3----5---------5-------|


[Verse]

    Dsus2/E            F#m11
The sun is just rising up
Dsus2/G                    Aadd9
Mother birds feeding their young
    Dsus2/E              F#m11
The light of a brand new day
              Dsus2/G                      Aadd9
I think we've finally found a home in this place


[Chorus]

                       F#m    F#m11  F#sus Em    Em9
And now I know there's beauty buried be –- neath
    F#m     F#m11   F#sus Em   Em9
The surface of what we    seek
F#m       F#m11 F#sus Em   Em9
Old hopes left  un –- felt
           F#m   F#m11    F#sus   Em   Em9
They lie between the wish and the well

  Dsus2/E            F#m11               Dsus2/G           Aadd9
e|---------0------2p0-------------------|---------0-------0--------------------|
B|---0h3-----0h3------------------------|---0h3-----0h3------------------------|
G|--2-------2--------------2---------2--|--2-------2-------------6---------6---| 2x
D|-----------------------0---0----------|----------------------0---0-----------|
A|-----------------------------4---4----|----------------------------7---7-----|
E|--0----0-------0-----2---------2------|--3----3-------3----5---------5-------|


[Post-Chorus]

                Dsus2/E         F#m11
(I know there's beauty buried beneath) (Beauty buried beneath)
         Dsus2/G         Aadd9
(There's beauty buried beneath) (Beauty buried beneath)
                Dsus2/E         F#m11
(I know there's beauty buried beneath) (Beauty buried beneath)
                Dsus2/G           Aadd9
(I know there's beauties buried beneath) (Beauty buried beneath)


[Outro]

                   F#m    F#m11  F#sus Em    Em9
Now I know there's beauty buried be –- neath
    F#m     F#m11   F#sus Em   Em9
The surface of what we    seek
F#m       F#m11 F#sus Em   Em9
Old hopes left  un –- felt
           F#m   F#m11    F#sus   Em
They lie between the wish and the well  

            
            
Suggest correction
Creating personal tab
Creating personal tab
You can edit any tab online and save it as your Personal.

You can edit, replace or remove any tab part or add personal notes – all changes will be seen only by you.

Personal tabs can be accessed anytime from any device, even offline.
Learn more »
comments
print report bad tab
guest
You may want to rate the tab now too:
select rating
Wanna post a correction for this tab? Suggest correction