Oops, an error
Loading. Please wait.

Comin Home Tab

version 4
version 4

Whole song

Interactive

244,312 views 63 this week
17 commentsread comments
1 2 3 4 5
x 78
add to favorites
launch autoscroll
font size
0
reset
how to read this tab
guitar tuner
×
Best way to learn
"Comin Home"
Autoscroll
slow
fast
+/-
esc
set tempo
stop
Author
Difficulty
Capo
  follow
novice
2nd fret
Capo 2

[Intro]
e|-0---------------0-0-0-0-0-0--0-0-0-0--0-0-0-0-0-0---0-0-0-0----|
B|-3/5/3p0---------0-0-0-0-0-0--3-3-3-3--1-1-1-1-1p0---3-3-3-3----|
G|--------2/4/2p0--0-0-0-0-0-0--0-0-0-0--0-0-0-0-0-0---0-0-0-0----|
D|---------------0h2-2-2-2-2-2--4-4-4-4--2-2-2-2-2-2---4-4-4-4----|
A|---------------0h2-2-2-2-2-2--5-5-5-5--3-3-3-3-3-3---5-5-5-5----|
E|-----------------0-0-0-0-0-0--5-5-5-5--3-3-3-3-3-3---5-5-5-5----|

[Verse]
e|----0-0-0-0-0-0--0-0-0-0--0-0-0-0-0-0---0-0-0-0----|
B|----0-0-0-0-0-0--3-3-3-3--1-1-1-1-1p0---3-3-3-3----|
G|----0-0-0-0-0-0--0-0-0-0--0-0-0-0-0-0---0-0-0-0----|
D|----2-2-2-2-2-2--4-4-4-4--2-2-2-2-2-2---4-4-4-4----|
A|----2-2-2-2-2-2--5-5-5-5--3-3-3-3-3-3---5-5-5-5----|
E|----0-0-0-0-0-0--5-5-5-5--3-3-3-3-3-3---5-5-5-5----|

[Chorus]
(the second guitar does this riff)
e|--3-2----------------------|
B|------0-3/5----------------|
G|------------2-4------------|
D|---------------------------|
A|---------------------------|
E|---------------------------|

(Dallas)
e|----0-0-0-0-0-0--0-0-0-0--0-0-0-0-0-0---0-0-0-0----|
B|----0-0-0-0-0-0--3-3-3-3--1-1-1-1-1p0---3-3-3-3----|
G|----0-0-0-0-0-0--0-0-0-0--0-0-0-0-0-0---0-0-0-0----|
D|----2-2-2-2-2-2--4-4-4-4--2-2-2-2-2-2---4-4-4-4----|
A|----2-2-2-2-2-2--5-5-5-5--3-3-3-3-3-3---5-5-5-5----|
E|----0-0-0-0-0-0--5-5-5-5--3-3-3-3-3-3---5-5-5-5----|

[Bridge]
(Play softly)
e|----0-0-0-0/--0-0-0-0--0-0-0-0/--0-0-0-0---|
B|----1-1-1-1/--3-3-3-3--3-3-3-3/--1-1-1-1---|
G|----0-0-0-0/--0-0-0-0--0-0-0-0/--0-0-0-0---|
D|----2-2-2-2/--4-4-4-4--4-4-4-4/--2-2-2-2---|
A|----3-3-3-3/--5-5-5-5--5-5-5-5/--3-3-3-3---|
E|----3-3-3-3/--5-5-5-5--5-5-5-5/--3-3-3-3---|

[Outro]
e|----0-0-0-0-0-0---0-0-0-0-0-0---0-0-0--------|
B|----0-0-0-0-0-0---1-1-1-1-1p0---3-3-3--------|
G|----0-0-0-0-0-0---0-0-0-0-0-0---0-0-0--------|
D|----2-2-2-2-2-2---2-2-2-2-2-2---4-4-4--------|
A|----2-2-2-2-2-2---3-3-3-3-3-3---5-5-5--------|
E|----0-0-0-0-0-0---3-3-3-3-3-3---5-5-5--------|


************************************

| p  Pull-off
| /  Slide up
| h  Hammer-on

************************************
Suggest correction
comments
print report bad tab
17 comments total. Showing first comments.
0 reply
Mohican06 10 Dec 09, 2006 06:57 PM

This is better then the first one by far. I've seen dallas play it from a foot away and also heard him comment on how my friend played it(which was similar to this, just played a C major instead of the C/G

0 reply
darkness222 10 Jan 08, 2007 06:43 PM

e|--0----------------| This sounds more correct if you put the
B|--3/5/3p0----------| pull-offs after the slide because if you
G|----------2/4/2p0--| listen there is 4 notes in each of the
D|-------------------| slides. And when I play it like that it
A|-------------------| sounds more correct. But that is my opinion.
E|-------------------|

+1 reply
underscore_ 177 Jan 25, 2007 08:43 AM

this tab is right except it is missing one chord:

e|-0---------------0-0-0-0-0-0---0-0-0-0---0-0-0-0-0-0---0-0-0-0----|
B|-3/5/3p0---------0-0-0-0-0-0---0-0-0-0---1-1-1-1-1p0---3-3-3-3----|
G|--------2/4/2p0--0-0-0-0-0-0---0-0-0-0---0-0-0-0-0-0---0-0-0-0----|
D|---------------0h2-2-2-2-2-2---4-4-4-4---2-2-2-2-2-2---4-4-4-4----|
A|---------------0h2-2-2-2-2-2---5-5-5-5---3-3-3-3-3-3---5-5-5-5----|
E|-----------------0-0-0-0-0-0---5-5-5-5---3-3-3-3-3-3---5-5-5-5----|
_________

i have underlined the chord that is missing. i hope this helps u.

guest
You may want to rate the tab now too:
select rating
Wanna post a correction for this tab? Suggest correction