Oops, an error
Loading. Please wait.

Comin Home Tab

version 5
version 5

Whole song

Interactive

126,365 views 153 this week
1 commentread comment
1 2 3 4 5
excellent!
x 53
add to favorites
launch autoscroll
font size
0
reset
how to read this tab
guitar tuner
Autoscroll
slow
fast
+/-
esc
set tempo
stop
Help us to improve Ultimate-Guitar.com Take our survey!
×
Author
Difficulty
Capo
intermediate
2nd fret
-------------------------------------------------------------------------------
                             COMIN' HOME - City and Colour
-------------------------------------------------------------------------------
Tabbed by: Alannah Orcutt
Email: alannah.ohh.815@hotmail.com

Tuning: Standard, Capo 2

Chords used:

     Em     C/G    "D/A"
e|---0-------0-------0--|
B|---0-------1-------3--|
G|---0-------0-------0--|
D|---2-------2-------4--|
A|---2-------3-------5--|
E|---0-------3-------5--|

I'm not tabbing the strum pattern cause if I did it wouldn't make any sense. Just listen 
to the song, or here: http://www.youtube.com/watch?v=Z0GC8atI43I to get it. I'll just 
tab when the chord changes. It's easy, don't worry!

[Intro]

e|--0~------------------0-0---x--0--0--|
B|--3/5\3p0---0~--------0-0---x--1--3--|
G|------------2/4\2p0---0-0---0--0--0--|
D|----------------------0h2---0--2--4--|
A|----------------------0h2---0--3--5--|
E|----------------------0-0---2--3--5--|
"Well I been down to Georgia, I've seen the streets in the-

e|--0---x--0--0--|
B|--0---x--1--3--|
G|--0---0--0--0--|
D|--2---0--2--4--|
A|--2---0--3--5--|
E|--0---2--3--5--|
west, I've driven down the 90, hell I've seen America's-

e|--0---x--0--0--|
B|--0---x--1--3--|
G|--0---0--0--0--|
D|--2---0--2--4--|
A|--2---0--3--5--|
E|--0---2--3--5--|
best, I been through the Rockies, I've seen Saska-

e|--0---x--0--0--|
B|--0---x--1--3--|
G|--0---0--0--0--|
D|--2---0--2--4--|
A|--2---0--3--5--|
E|--0---2--3--5--|
-toon, I've driven down the highway one, just hoping that I'd see you soon,

e|--0---x--0--0--0--|
B|--0---x--1--1--3--|
G|--0---0--0--0--0--|
D|--2---0--2--0--4--|
A|--2---0--3--3--5--|
E|--0---2--3--3--5--|
But I'm coming home, coming home (x4)

e|--0---x--0--0--|
B|--0---x--1--3--|
G|--0---0--0--0--|
D|--2---0--2--4--|
A|--2---0--3--5--|
E|--0---2--3--5--|
I've never been to Alaska, but I can tell you-

e|--0---x--0--0--|
B|--0---x--1--3--|
G|--0---0--0--0--|
D|--2---0--2--4--|
A|--2---0--3--5--|
E|--0---2--3--5--|
this, I been to Lincoln, Nebraska, and hell, you know it ain't worth

e|--0---x--0--0--|
B|--0---x--1--3--|
G|--0---0--0--0--|
D|--2---0--2--4--|
A|--2---0--3--5--|
E|--0---2--3--5--|
shit. I've seen Nova Scotia, Sydney to Hali-

e|--0---x--0--0--|
B|--0---x--1--3--|
G|--0---0--0--0--|
D|--2---0--2--4--|
A|--2---0--3--5--|
E|--0---2--3--5--|
-fax, but I'll never take any pictures, cause I know I'll just be right back.

e|--0---x--0--0--0--|
B|--0---x--1--1--3--|
G|--0---0--0--0--0--|
D|--2---0--2--0--4--|
A|--2---0--3--3--5--|
E|--0---2--3--3--5--|
But I'm coming home, coming home (x4)

e|--0---x--0--0--|
B|--0---x--1--3--|
G|--0---0--0--0--|
D|--2---0--2--4--|
A|--2---0--3--5--|
E|--0---2--3--5--|
I've seen a palace in London, I've seen a castle in-

e|--0---x--0--0--|
B|--0---x--1--3--|
G|--0---0--0--0--|
D|--2---0--2--4--|
A|--2---0--3--5--|
E|--0---2--3--5--|
Wales, but I'd rather wake up beside you, and breathe that old familiar-

e|--0---x--0--0--|
B|--0---x--1--3--|
G|--0---0--0--0--|
D|--2---0--2--4--|
A|--2---0--3--5--|
E|--0---2--3--5--|
smell, I've never thought you could leave me, I figured I was the-

e|--0---x--0--0--|
B|--0---x--1--3--|
G|--0---0--0--0--|
D|--2---0--2--4--|
A|--2---0--3--5--|
E|--0---2--3--5--|
one, but I understand your sadness, so I guess I should just hold my tongue

e|--0---x--0--0--0--|
B|--0---x--1--1--3--|
G|--0---0--0--0--0--|
D|--2---0--2--0--4--|
A|--2---0--3--3--5--|
E|--0---2--3--3--5--|
But I'm coming home, coming home (x4)

e|--0--0--0--0--0--0--|
B|--3--1--3--1--3--1--|
G|--0--0--0--0--0--0--|
D|--4--2--4--2--4--2--|
A|--5--3--5--3--5--3--|
E|--5--3--5--3--5--3--|
I know that we're taking chances, you told me life was a risk, I just have one last 
question, will it be my heart, or will it be his?

e|--0---x--0--0--0----0~--|
B|--0---x--1--1--3----0~--|
G|--0---0--0--0--0----x---|
D|--2---0--2--0--4----9~--|
A|--2---0--3--3--5----7~--|
E|--0---2--3--3--5----0~--|
But I'm coming home, coming home (x4)


End it however you want, but I like to do this:
e|--0~------------------0-0~--|
B|--3/5\3p0---0~--------0-0~--|
G|------------2/4\2p0---0-0~--|
D|----------------------0h2~--|
A|----------------------0h2~--|
E|----------------------0-0~--|

************************************

| /   slide up
| \   slide down
| ~   let ring
| h   hammer-on
| p   pull-off
| x   Mute note

************************************
Suggest correction
comments
print report bad tab
1 comment total.
0 reply
gabrielhernande 10 wrote on November 28 2012, 07:27 pm

AWESOME!! AFULL 5 STARS. Lovin IT!

guest
You may want to rate the tab now too:
select rating
Wanna post a correction for this tab? Suggest correction