Oops, an error
Loading. Please wait.

Coming Home Tab

version 1
version 1

Intro

Whole song

47,158 views 18 this week
3 commentsread comments
1 2 3 4 5
accurate
x 11
add to favorites
launch autoscroll
font size
0
reset
how to read this tab
guitar tuner
Tab Pro tools
  • play this tab
  • loop segment
  • change instrument
  • show fretboard
  • metronome
×
Best way to learn
"Coming Home"
Autoscroll
slow
fast
+/-
esc
set tempo
stop
Contributor
Difficulty
intermediate
ok i spent alot of time corecting the other one so i'm making my own i think this one is better.

questions,add ons, send to ira411@msn.com

Cappo on the 2nd fret..
normal tuning

Note:When u let go of your slide pull your finger
straight down and strike the bottom string

       Note:The mute is very Quick(XXXXXX=mute)
                                 |
--0-----0------------------------x-------|
--3/53p0---0-----0--------------x--------|
------------2/42p0--------0-0-0-x-0-0----|
-------------------------0h2-2-2-x-2-2---|
-------------------------0h2-2-2-x-2-2---|
---------------------------0-0-0-x-0-0---|
(CONT)
  Note:The mute is very Quick(XXXXXX=mute)
       |
-0-0-0-x-0-0----------0-----0-------------|
-1-1-1-x-1-1----------3/53p0--0-----0-----|
-0-0-0-x-0-0---0-0-0-----------2/42p0-----|
-2-2-2-x-2-2-0h2-2-2----------------------|
-3-3-3-x-3-3-0h2-2-2----------------------|
-0-0-0-x-0-0---0-0-0----------------------|


This is pretty much played for the rest of the song

--------------0-0-0---0-0-|
--------------1-1-1---1-1-|
--0-0-0---0-0-0-0-0---0-0-|
0h2-2-2---2-2-2-2-2---2-2-|
0h2-2-2---2-2-3-3-3---3-3-|
--0-0-0---0-0-0-0-0---0-0-|

This is my frist tabs.Please rate and injoy
comments
print report bad tab
3 comments total.
0 reply
EliteSOB wrote on May 6 2006, 12:05 pm

The first verse is off a bit..The X's on the 2 and 3 string are moved over a bit.sry

0 reply
St3veWalsh wrote on February 14 2009, 11:13 pm

I don't know about the rest of you but I say this is right on, really good, tab, 5 stars

-2 reply
TheSherman wrote on September 19 2009, 05:33 am

It's not quite right. You've missed out two whole chords. And the second
--0-----0-------------|
--3/53p0--0-----0-----|
-----------2/42p0-----|
----------------------|
----------------------|
----------------------|
should be
--0-----0-------------|
--1/31p0--0-----0-----|
-----------2/42p0-----|
----------------------|
----------------------|
----------------------|
and he puts a G on the E string when he plays the C.
but anyway.
The songs mainly goes.
e|----0-0-0-0-0-0--0-0-0-0--0-0-0-0-0-0---0-0-0-0----|
B|----0-0-0-0-0-0--0-0-0-0--1-1-1p0-0-0---3-3-3-3----|
G|----0-0-0-0-0-0--0-0-0-0--0-0-0-0-0-0---0-0-0-0----|
D|----2-2-2-2-2-2--4-4-4-4--2-2-2-2-2-2---4-4-4-4----|
A|----2-2-2-2-2-2--5-5-5-5--3-3-3-3-3-3---5-5-5-5----|
E|----0-0-0-0-0-0--5-5-5-5--3-3-3-3-3-3---5-5-5-5----|

you have written it detailed though which i like

I want to post or [tab]
guest
You may want to rate the tab now too:
select rating
Please do not post tabs as comments. Select "correction" instead!