Oops, an error
Loading. Please wait.

Commentators Tab

version 1
version 1

Whole song

9,810 views 42 this week
5 commentsread comments
1 2 3 4 5
accurate
x 12
add to favorites
launch autoscroll
font size
0
reset
how to read this tab
guitar tuner
Tab Pro tools
  • play this tab
  • loop segment
  • change instrument
  • show fretboard
  • metronome
Autoscroll
slow
fast
+/-
esc
set tempo
stop
Contributor
CAPO 2

Love to play this song, especially that intro.

It's slidey.

Intro Solo thing.

e -33-32-0----------------------------------------------------------------------|
b ------------3--03-3/5--30--------------------------3--------------------------|
g -------------------------------2/420--------2--2/4----4-4p2p0-0-2-------------|
d ---------------------------------------2--5---5-------------------------------|
a ------------------------------------------------------------------------------|
E ------------------------------------------------------------------------------|

e -33-32-0----------------------------------------------------------------------|
b ------------3--03-3/5--30---------------------------3-------------------------|
g -------------------------------2/420--02----002/4--4\20---2-------------------|
d ---------------------------------------2------------------------5---5---------|
a ------------------------------------------------------------------------------|
E ------------------------------------------------------------------------------|


Intro / Chorus

G         Bm          C    C7   Em      Am        Em        C

0          0          0    0    0        0         0        0
0          3          1    1    0        1         0        1
4          4          0    0    0        2         0        0
5          4          2    0    2        2         2        2
5          2          3    2    2        0         2        3
3          0          0    0    0        0         0        0

G Bm C>Cmaj7>Em Am Em C

For the final C Chord, pull off the b string at the end.


Verse

G          Bm          Em           C

0           0           0           0
0           3           0           1
4           4           0           0
5           4           2           2
5           2           2           3
3           0           0           0

For the Verse, slow down the strumming, sometimes mute the strings...just go with the song

Enjoy!
comments
print report bad tab
5 comments total. Showing first comments.
0 reply
ModestSyn wrote on June 11 2013, 03:42 pm

*sigh* the tab didnt go up correctly, must have messed up somewhere...

this is the second part of the intro, the first part is in order but its spaced out a bit which is annoying.

e -33-32-0----------------------------------------------------------------------|
b ---------3--03-3/5--30-------------------3------------------------------------|
g -----------------------2/4-20--02--022/4---4\20---2---------------------------|
d -----------------------------2------------------5---5-------------------------|
a ------------------------------------------------------------------------------|
E ------------------------------------------------------------------------------|

0 reply
Shreddaboi12 wrote on June 17 2013, 10:41 am

Great tab man, I actually sat down and worked this out yesterday and this is 95% same as what I heard, however I believe the intro progression is as follows:

G Bm C Em Am7 Em Bm then on second time
replace last Bm with C
------2----0----0-----0-----0----2-----------------------0-------------|
--3---3----1----0-----1-----0----3-----------------------1(p0)---------|
--0---4----0----0-----0-----0----4-----------------------0-------------|
--0---4----2----2-----2-----2----4-----------------------2-------------|
--2---2----3----2-----0-----2----2-----------------------3-------------|
--3-------------0-----------0------------------------------------------|

0 reply
ModestSyn wrote on June 17 2013, 02:45 pm

YES! I instantly prefer your version! Thanks man!

I want to post or [tab]
guest
You may want to rate the tab now too:
select rating
Please do not post tabs as comments. Select "correction" instead!