Oops, an error
Loading. Please wait.

Confessions Tab

version 1
version 1

Whole song

73,739 views 9 this week
2 commentsread comments
1 2 3 4 5
accurate
x 9
add to favorites
launch autoscroll
font size
0
reset
how to read this tab
guitar tuner
Autoscroll
slow
fast
+/-
esc
set tempo
stop
Help us to improve Ultimate-Guitar.com Take our survey!
×
Author
Difficulty
Capo
intermediate
2nd fret
its my first time tab'n a song, i couldnt find the tabs anywhere for it so i made it, 
95% right:D i watched it live over and over okie here i go..
tuning on the album is standard, you could use a capo on the 2nd fret

intro..
------------------3--------------------------------|
------------------3--------------------------------|
------------------0--------------------------------|
-2/4-2--0---------0--------------------------------|
------------------2--------------------------------|
------------0-2-3-3--------------------------------|

chrous..
---0----0-----3-----------------------------------|
---0----0-----3-----------------------------------|
---0----0-----0-----------------------------------|
---0----4-----0-----------------------------------|
---5----0-----2-----------------------------------|
-7-7--5-5---3-3-----------------------------------|


little interlude thing..

----------------------------------------------------------|
-0-0--3-2-0-----0-0-3/5-3-2-0-----------------------------|
-0-0--------2---0-0-----------4-4-------------------------|
-0-0----------4-4-4-----------0-0-------------------------|
-2-2------------0-0-----------0-0-------------------------|
------------------------------3-3-------------------------|
Suggest correction new What's this?
You can suggest a correction to this tab. Community and Mods will review your correction and vote to approve or reject it.
comments
print report bad tab
2 comments total.
+1 reply
ryan.ginn 17 wrote on December 27 2009, 01:45 pm

It shouldn't be a normal G chord on the intro like you put

It should be an inversion, 0
0
2
0
2
3

It's still a G, just a different one.
Hope it all lines up.

Thanks,
Ryan

0 reply
ryan.ginn 17 wrote on December 27 2009, 01:48 pm

the same chord for the chorus.

instead of

3

guest
You may want to rate the tab now too:
select rating
Please do not post tabs as comments. Select "correction" instead!