Oops, an error
Loading. Please wait.

Confessions Tab

version 2
version 2

Whole song

69,135 views 36 this week
9 commentsread comments
1 2 3 4 5
x 11
add to favorites
launch autoscroll
font size
0
reset
how to read this tab
guitar tuner
Autoscroll
slow
fast
+/-
esc
set tempo
stop
Help us to improve Ultimate-Guitar.com Take our survey!
×
Author
Difficulty
Capo
novice
2nd fret
Dallas Green

Confessions


Capo 2nd fret

Tuning – high to low

E
B
F#
D
B
E

Main Riff Verse

E----0--------0--------0---0--0--0-------------------------------------------|
B----0--------0--------0---3--3--0-------------------------------------------|
F----0--------0--------3---3--3--3-------------------------------------------|
D----2/4/2----0--------0---0--0--0-------------------------------------------|
B----0-----------------0---0--0--0-------------------------------------------|
E----------------0h2h3-3---3--3--3-------------------------------------------|

Chorus


E---------0------0----0-----------------------------------------------------|
B---------0------0----0-----------------------------------------------------|
F---------0------0----5-----------------------------------------------------|
D---------9------7----5-----------------------------------------------------|
B---------0------0----0-----------------------------------------------------|
E---------7------5----3-----------------------------------------------------|

Solo part after chorus

E---------0-------------0-0------------------------0--------------------|
B---------0---/3-2-0----0-0-------/5—3/2p0---------0--------------------|
F---------0-----------3-3-3------------------0-----3--------------------|
D---------0-------------0-0------------------------0--------------------|
B---------0-------------0-0------------------------0--------------------|
E-----------------------5-5------------------------3--------------------|


Great song.  This is my first tab so any feedback would be great.
Suggest correction
comments
print report bad tab
9 comments total. Showing first comments.
0 reply
IraInverse 10 Apr 10, 2007 04:24 AM

Sounds good, but the chorus doesn't sound at all like it should.

0 reply
senseless277 10 Jun 08, 2007 05:12 AM

how did you figure out the tuning

0 reply
kris16 10 Jul 22, 2007 11:37 PM

well done tab except for the chorus, ur a bit off. u hav the main idea down for it, but ur a few strings off from the actual thing. Since i dont really hav a tab writer thingy, just move ur fingers closer together for the 1st part of the chorus by 1 string, then put both fingers on the same fret while playing the last 2 chords of the chorus.good job otherwise.

guest
You may want to rate the tab now too:
select rating
Wanna post a correction for this tab? Suggest correction