Oops, an error
Loading. Please wait.

Confessions Tab

version 3
version 3

Whole song

31,406 views 18 this week
3 commentsread comments
1 2 3 4 5
x 4
add to favorites
launch autoscroll
font size
0
reset
how to read this tab
guitar tuner
Autoscroll
slow
fast
+/-
esc
set tempo
stop
Help us to improve Ultimate-Guitar.com Take our survey!
×
Difficulty
Capo
intermediate
2nd fret
Tuning:
e,b,f#,d,B,E

~=slide

/=pulloff

h=hammer on

-capo 2nd fret

e|----------------------------------|
b|---0-------------------3-0--------|
f#|--0-------------0-0-0-3-0--------|
d|---2~4~2---------0-0-0-0-0--------|
B|---0-------------0-0-0-0-0--------|
E|--------0h2h3----3-3-3-3-3--------|4 times.

intro part#2

e|----------------------------------|
b|---0-------------------0-0-0------|
f#|--0-------------0-0-0-0-0-0------|
d|---2~4~2---------0-0-0-0-0-0------|
B|---0-------------0-0-0-0-0-0------|4 times, then reverts back to the first 
E|--------0h2h3----3-3-3-3-3-3------|part.

chorus

e|----0-0-0-0---0-0-0-0---0-0-0-0-0-|
b|----0-0-0-0---0-0-0-0---0-0-0-0-0-|
f#|---0-0-0-0---0-0-0-0---0-5-5-5-5-|
d|----9-9-9-9---7-7-7-7---5-5-5-5-5-|
B|----0-0-0-0---0-0-0-0---0-0-0-0-0-|I use up and down strokes.
E|--7-7-7-7-7-5-5-5-5-5-3-3-3-3-3-3-|

the solo

e|------------------------------------------0-0-0-0-----|
b|----------0-3-2-0-------5—3-2-0---2-0-----0-3-3/0-----|
f#|------------------3-0-----------3--------0-3-3-3-----|
d|------------------------------------------0-0-0-0-----|
B|------------------------------------------0-0-0-0-----|
E|---------3-------------5------------------3-3-3-3-----|

listen to the song first you'll know exactly what i mean,
gimme some feedback this is my first tab layout.
Suggest correction
comments
print report bad tab
3 comments total.
0 reply
s&p 80 Sep 06, 2008 09:41 PM

is this the "live" version or the "bring me your love" version?

0 reply
wongacaster 80 Jan 25, 2009 05:57 AM

Awesome awesome tab, all i really needed wasthe tuning but i playd the tab annyways and its good as.

+1 reply
Thomathon 42 Aug 26, 2011 01:43 AM

How would you feel about the chorus being E7x0800e, E5x7800e, E3x0300e ??

guest
You may want to rate the tab now too:
select rating
Wanna post a correction for this tab? Suggest correction