Oops, an error
Loading. Please wait.

Constant Knot Tab

version 1
version 1

Whole song

41,188 views 24 this week
4 commentsread comments
1 2 3 4 5
accurate
x 9
add to favorites
launch autoscroll
font size
0
reset
how to read this tab
guitar tuner
Tab Pro tools
  • play this tab
  • loop segment
  • change instrument
  • show fretboard
  • metronome
Autoscroll
slow
fast
+/-
esc
set tempo
stop
Contributor
Difficulty
novice
Tabbed by Spence Thompson

Tuning: EGDGAE

From standard:
A down 1 whole step to a G
B down 1 whole step to an A


intro:
same as verse
    v v^ v^v  v^v ^v
E |---------------------||
A |---------------57----||
G |-7-77-777--XXX-XX----||
D |-7-77-797--555-55----||x4
G |-5-55-555--444-44----||
E |-X-XX-XXX--XXX-XX----||

verse:

"How much would you bet"
    v v^ v^v  v^v ^v
E |---------------------||
A |---------------57----||
G |-7-77-777--XXX-XX----||
D |-7-77-797--555-55----||x8
G |-5-55-555--444-44----||
E |-X-XX-XXX--XXX-XX----||

prechorus:

"Ba ba ba's"

    v v^ v^v  v^v ^v    (small rift i hear that go right after first measure)
E |---------------------|       E |----------|
A |---------------57----|       A |----------|
G |-7-77-777--XXX-XX----|       G |--------0-|
D |-7-77-797--555-55----|       D |----------|
G |-5-55-555--444-44----|       G |--0h3/5---|
E |-X-XX-XXX--XXX-XX----|       E |----------|
    v v^ v^v  v^v ^v^v
E |---------------------|
A |---------------5577--|
G |-7-77-777--XXX-XXXX--|
D |-7-77-797--555-5555--|
G |-5-55-555--444-4444--|
E |-X-XX-XXX--XXX-XXXX--|

chorus:

"So stay the night.."
    v v^ ^v^ ^v^ ^v^
E |----------------------|
A |----------------------|
G |-4-44-444-444-444-----|
D |-0-00-000-000-000-----|
G |-X-XX-XXX-XXX-333-----|
E |-3-33-333-333-XXX-----|


"i promise.."
    v v^ ^v^ ^v^ ^v^
E |----------------------|
A |----------------------|
G |-4-44-444-444-444-----|
D |-0-00-000-000-000-----|
G |-X-XX-XXX-XXX-333-----|
E |-3-33-333-333-XXX-----|

"..bite"

    v v^ ^v^ ^v^ ^v^
E |----------------------------||
A |----------------------------||
G |-0-00-000-000-0-0-0-0-0-----||
D |-2-22-222-222-2s0h2/4\2-----||x2
G |-2-22-222-222-2-2-2/4\2-----||
E |-X-XX-XXX-XXX-XXX-X-X-X-----||

(he ends on the slide down as the downstroke of the first downstroke of the next measure 
you repeat)

after you got that down the rest is just repeat.

Enjoy =)
comments
print report bad tab
4 comments total. Showing first comments.
0 reply
dragonlink2 wrote on April 12 2008, 01:35 am

E |---------------------||
A |---------------57----||
G |-7-77-777--XXX-XX----||
D |-7-77-797--444-44----||x4
G |-5-55-555--555-55----||
E |-X-XX-XXX--XXX-XX----||

this sounds better to me, otherwise this tab is great

0 reply
Shib wrote on July 21 2008, 08:18 pm

looks pretty good man.

0 reply
omertoscar wrote on April 6 2009, 06:08 pm

for me it sounded better like this:

E |-0-00-000--00-000---------||
A |-0-00-000--XX-X57---------||
G |-0-00-000--00-000---------||
D |-X-XX-X97--55-555---------||x4
G |-5-55-555--44-444---------||
E |-X-XX-XXX--00-000---------||

I want to post or [tab]
guest
You may want to rate the tab now too:
select rating
Please do not post tabs as comments. Select "correction" instead!