Oops, an error
Loading. Please wait.

Constant Knot Tab

version 2
version 2

Whole song

8,160 views 1 this week
1 commentread comment
1 2 3 4 5
1 last vote to show rating
add to favorites
launch autoscroll
font size
0
reset
how to read this tab
guitar tuner
Autoscroll
slow
fast
+/-
esc
set tempo
stop
Help us to improve Ultimate-Guitar.com Take our survey!
×
Author
Difficulty
novice
Tabbed by: Os Negrete
Email: x17_89@hotmail.com

Solo subiendo una version cercana y facil de tocar la canción para quien guste.

(This is just a close way to play the song its not 100% accurate)





Tuning: Standard Con Capo el 1er traste

Intro y Versos 

e|-00-00-0-----000-0-----------------R---M------(R)-(A)-----------------|
B|-00-00-0-----000-3-3/5-------------E---U------(E)---------------------|
G|-22-02-2-2-0-000-0-----------------P---C------(P)-(L)-----------------|
D|-22-22-------222-2-----------------I---H------(E)-(O)-----------------|
A|-33-33-------222-2-----------------T---O------(A)-(T)-----------------|
E|-33-33-------000-0-----------------E----------(T)---------------------|

Coro 

So stay the night...        that i |wont| bite...
e|---3-----------------------------|-3--|---------o------------|r
B|---3-----------------------------|-3--|---------3------------|e
G|---0-----------------------------|-2--|---------0------------|p
D|---0-----------------------------|-0--|---------4------------|i
A|---2-----------------------------|-0--|---------2------------|t
E|---3-----------------------------|-2--|---------0------------|e


Chequen mi música también :)
Check my music too        :)

www.myspace.com/Monocerosrock
Suggest correction
Give kudos to tab author, rate the tab!
1 2 3 4 5
comments
print report bad tab
1 comment total.
0 reply
omertoscar 549 Nov 02, 2009 11:34 PM

Just one thing with this section of the song,you can play instead the slide from 3rd fret to 5th on the B string the notes in the parentesis

En vez de el slide del 3er traste hacia el 5to de la cuerda de Si puedes tocar las notas del parentesis

e|--000-0--------(0)---------R---M--(R)-(A)---|
B|--000-3-3/5-(3)------------E---U--(E)-------|
G|--000-0--------------------P---C--(P)-(L)---|
D|--222-2--------------------I---H--(E)-(O)---|
A|--222-2--------------------T---O--(A)-(T)---|
E|--000-0--------------------E------(T)-------|

guest
You may want to rate the tab now too:
select rating
Wanna post a correction for this tab? Suggest correction