Oops, an error
Loading. Please wait.

Constant Knot Tab

version 3
version 3

Whole song

24,712 views 9 this week
no commentswrite comment
1 2 3 4 5
accurate
x 7
add to favorites
launch autoscroll
font size
0
reset
how to read this tab
guitar tuner
Tab Pro tools
  • play this tab
  • loop segment
  • change instrument
  • show fretboard
  • metronome
Autoscroll
slow
fast
+/-
esc
set tempo
stop
Contributor
Constant Knot by City and Colour

Tabbed by xhenry

Probably my favourite song on Bring me your love. This is how i play it 
in standard. The tab is followed by the strumming pattern and the lyrics 
are for guidance. I can put up a lyric free tab if requested.

Standard Tuning

No capo (or to match your voice)

d = down strum
u = up strum
h = hammer on

Into/Verses/Pre-chorus

     How        bet?
     If        enough
 Spon    tane   ous    ly
Combust
  Ba ba bada    Ba  badadada
 Ba                           
|-------------------------0-----|
|---------0-----0-0-0-0-----3-3-|
|-2--2--2---2-0-0-0-0-0-----0-0-|
|-2--2--2---2---0-0-0-0-0---0-0-|
|-3--3--3---3---2-2-2-2-2---2-2-|
|-3--3--3-------3-3-3-3-3-------|

|-------------------------u-----|
|---------u-----d-u-d-u-----d-u-|
|-d--d--d---d-u-d-u-d-u-----d-u-|
|-d--d--d---d---d-u-d-u-d---d-u-|
|-d--d--d---d---d-u-d-u-d---d-u-|
|-d--d--d-------d-u-d-u-d-------|

Chorus
  
  Stay  night
  I  promise        that won't    
|-3-3-3-3--3-3-3--3-3-3--3-3-3-|
|-0-0-0-0--0-0-0--0-0-0--0-0-0-|
|-0-0-0-0--0-0-0--0-0-0--0-0-0-|
|-0-0-0-0--0-0-0--0-0-0--0-0-0-|
|-2-2-2-2--2-2-2--2-2-2--2-2-2-|
|-3-3-3-3--3-3-3--3-3-3--3-3-3-|

  bite
|-0-0-0-0--0-0-0--0-0-0--0-0-0-|
|-0-0-0-0--0-0-0--0-0-0--0-0-0-|
|-0-0-0-0--0-0-0--0-0-0--0-0-0-|
|-4-4-4-4--4-4-4--4-4-4--4-4-4-|
|-2-2-2-2--2-2-2--2-2-2--2-2-2-|
|-0-0-0-0--0-0-0--0-0-0--0-0-0-|

|-d-u-d-u--u-d-u--u-d-u--u-d-u-|
|-d-u-d-u--u-d-u--u-d-u--u-d-u-|
|-d-u-d-u--u-d-u--u-d-u--u-d-u-|
|-d-u-d-u--u-d-u--u-d-u--u-d-u-|
|-d-u-d-u--u-d-u--u-d-u--u-d-u-|
|-d-u-d-u--u-d-u--u-d-u--u-d-u-|

Both chords in the chorus have the same strum pattern

Occasionally hammer on like this during the chorus

|---3-||---0-|
|---0-||---0-|
|---0-||---0-|
|---0-||-0h4-|
|-0h2-||-0h2-|
|---3-||---0-|

Outro

      Baba
        Bada
|-3-3-3-3--3-3-3--3-3-3--3-3-3-|
|-3-3-3-3--3-3-3--3-3-3--3-3-3-|
|-0-0-0-0--0-0-0--0-0-0--0-0-0-|
|-0-0-0-0--0-0-0--0-0-0--0-0-0-|
|-2-2-2-2--2-2-2--2-2-2--2-2-2-|
|-3-3-3-3--3-3-3--3-3-3--3-3-3-|

|-0-0-0-0--0-0-0--0-0-0--0-0-0-|
|-0-0-0-0--0-0-0--0-0-0--0-0-0-|
|-0-0-0-0--0-0-0--0-0-0--0-0-0-|
|-4-4-4-4--4-4-4--4-4-4--4-4-4-|
|-2-2-2-2--2-2-2--2-2-2--2-2-2-|
|-0-0-0-0--0-0-0--0-0-0--0-0-0-|

|-d-u-d-u--u-d-u--u-d-u--u-d-u-|
|-d-u-d-u--u-d-u--u-d-u--u-d-u-|
|-d-u-d-u--u-d-u--u-d-u--u-d-u-|
|-d-u-d-u--u-d-u--u-d-u--u-d-u-|
|-d-u-d-u--u-d-u--u-d-u--u-d-u-|
|-d-u-d-u--u-d-u--u-d-u--u-d-u-|

And during the outro you can change this chord like this

|-0-0-|
|-0h3-|
|-0-0-|
|-4-4-|
|-2-2-|
|-0-0-|


Please comment and rate!

comments
print report bad tab
I want to post or [tab]
guest
You may want to rate the tab now too:
select rating
Please do not post tabs as comments. Select "correction" instead!