Oops, an error
Loading. Please wait.

Cowgirl In The Sand Tab

version 1
version 1

Whole song

31,668 views 3 this week
6 commentsread comments
1 2 3 4 5
accurate
x 4
add to favorites
launch autoscroll
font size
0
reset
how to read this tab
guitar tuner
Tab Pro tools
  • play this tab
  • loop segment
  • change instrument
  • show fretboard
  • metronome
×
Best way to learn
"Cowgirl In The Sand"
Autoscroll
slow
fast
+/-
esc
set tempo
stop
Difficulty
intermediate
ok so.......here's an idea of how the song goes by cityandcolour
the strumming shouldnt be hard to figure out


intro
e--------------------1------11-----1-e
*------h1---3p1---h1-1------11-----1-*
*--------2-----2-----2-0h2--22-0h2-2-*
*---------2-----2----3----3-33-----3-*
*--0-0---------------3------33-----3-*
E------------------------------------E

e---------------------1------11-----1-e
*------h1---1h3---3p1-1------11-----1-*
*--------2-----2------2--0h2-22-0h2-2-*
*---------2-----2-----3-3----33-----3-*
*--0-0----------------3------33-----3-*
E-------------------------------------E

Hello..........        can i stay for awhile..........
e--0000--11---11-------0-0-3-3-11-0------00-3-3-11-3-e
*--1111--11---11-------1-1-0-0-11-1------11-0-0-11-0-*
*--2222--22-h2220h2-x2-0-0-0-0-22-0------00-0-0-22-0-*
*--2222--33---33-------2-2-0-0-33-2------22-0-0-33-0-*
*--0000--33---33-------3-3-2-2-33-3-0h2h3-3-2-2-33-2-*
E--0000--00---00-------0-0-3-3-00-0-------0-3-3-00-3-E

Old enough............

e--00-00-00-111----2-2-110-(0)--1-1-0----0-0-0-1-3-0----e
*--11-00-11-111----3-3-111-(1)--1-1-1----1-1-1-1-0-3p1--*
*--22-00-00-222-x2-2-2-220-(0)--2-2-0----0-2-2-2-0-2--2-*
*--22-22-22-333----0-0-332-(2)--3-3-2-0h2--2-2-3-0-2--2-*
*--00-22-33-333----0-0-333-(3)--3-3-3----3-0-0-3-2-0--0-*
E--00-00-00-000----0-0-000-(0)--0-0-0----0-0-0-0-3-0--0-E -intro
comments
print report bad tab
6 comments total. Showing first comments.
+1 reply
SweetLeaf420 wrote on June 1 2008, 08:41 pm

I gave it a 5. I don't think the 3 star vote was correct. This tab is pretty much perfect, you just forgot to mention that the sung is tuned a whole step down. (DGCFAD)

-1 reply
SweetLeaf420 wrote on June 1 2008, 08:41 pm

I gave it a 5. I don't think the 3 star vote was correct. This tab is pretty much perfect, you just forgot to mention that the sung is tuned a whole step down. (DGCFAD)

0 reply
Xvendo. wrote on August 10 2008, 03:32 pm

Gave it a 4.
Pretty nice though i saw some parts were a little off.

I might come back with corrections.

Good tab though.

I want to post or [tab]
guest
You may want to rate the tab now too:
select rating
Please do not post tabs as comments. Select "correction" instead!