Oops, an error
Loading. Please wait.

Cowgirl In The Sand Tab

version 3
version 3

Whole song

1,264 views 1 this week
no commentswrite comment
1 2 3 4 5
please rate
add to favorites
launch autoscroll
font size
0
reset
how to read this tab
guitar tuner
Autoscroll
slow
fast
+/-
esc
set tempo
stop
Help us to improve Ultimate-Guitar.com Take our survey!
×
Author
Difficulty
intermediate
So I clicked "preview" and then clicked "back" by accident after realising part of 
it was wrong and BAM here I am re-tabbing it. 
But anyways, have fun (:

************************************

| /   slide up
| \   slide down
| h   hammer-on
| p   pull-off
| ~   vibrato
| +   harmonic
| x   Mute note
| b   Bend
| pb  Pre-bend
| br  Bend release
| pbr Pre-bend release
| brb Bend release bend

************************************

Intro + verses

e|-----------------------------|
B|------------2-------------2--|
G|----1h2---2---2\1---2--------|
D|--------4---------2---2h4----|
A|-----------------------------|
E|--2--------------------------|

Pre-choruses

e|-----------------------|
B|-----------------------|
G|-----5-----5-----2--1--|
D|-----------------4--1--|
A|-----6-----6-----4--2--|
E|--5-----4-----2-----0--|

x2 but on the first time:

e|--------------|
B|--------------|
G|--------------|
D|--------------|
A|--------------|
E|--0--2--4--5--|

Chorus

e|--9---x--x--9---7--x--9---x--x--x--9---7--9---|
B|--10--x--x--10--9--x--9---x--x--x--9---9--10--|
G|--11--x--x--11--9--x--9---x--x--x--10--9--11--|
D|--11--x--x--11--9--x--11--x--x--x--11--9--11--|  x2
A|--9---x--x--9---7--x--11--x--x--x--11--7--9---|
E|------x--x---------x--9---x--x--x--9----------|

Old enough now, to change your name...

Then\/

e|--9-------------------9----7---9------------------------|
B|--9-------------------9----9---10-----------------------|
G|--9-------------------9----9---11-----------------------|
D|--11------------------11---9---11-----------------------|
A|--11------------------11---7---9------------------------|
E|--9-------------------9---------------------------------|

It's the woman in you that makes you want to play this game.


Interval
e|--9---9---7--9---9--------9-------7--9---9---|
B|--10--10--9--9---9--------9-------9--10--10--|
G|--11--11--9--9---9---13---9---14--9--11--11--|
D|--11--11--9--11--11--13---11--14--9--11--11--|
A|--9---9---7--11--11--11---11--12--7--9---9---|
E|-------------9---9--------9------------------|


Verse2
Prechorus2
Chorus
Verse3
Prechorus3
Chorus
Suggest correction new What's this?
You can suggest a correction to this tab. Community and Mods will review your correction and vote to approve or reject it.
comments
We did not receive enough feedback on this tab! Please rate:
print report bad tab
1 2 3 4 5
guest
You may want to rate the tab now too:
select rating
Please do not post tabs as comments. Select "correction" instead!