Oops, an error
Loading. Please wait.

Day Old Hate Tab

version 1
version 1

Intro

Whole song

Interactive

20,499 views 1 this week
2 commentsread comments
1 2 3 4 5
please rate
add to favorites
launch autoscroll
font size
0
reset
how to read this tab
guitar tuner
Tab Pro tools
  • play this tab
  • loop segment
  • change instrument
  • show fretboard
  • metronome
×
Best way to learn
"Day Old Hate"
Autoscroll
slow
fast
+/-
esc
set tempo
stop
Contributor
Difficulty
intermediate
-------------------------------------------------------------------------------
                             Day Old Hate - City And Colour
-------------------------------------------------------------------------------
Tabbed by:Teeb
Email:i_love_weeb_forever@hotmail.co.uk


Tuning:standard

Inrto
e|------4h6--------6h7p6-------|
B|-----------4-----------4-----|
G|-------------4-----------4---|
D|-4h6-------------------------|
A|-----------------------------|
E|-----------------------------|

Intro Cont.
e|--4----4--|
B|--4----4--|
G|--4----4--|
D|--6----6--| work out the strumming BAHAHA
A|--7----6--|
E|----------|

Inrto Cont.
e|------4h6--------6h7p6-------|
B|-----------4-----------4-----|
G|-------------4-----------4---|
D|-4h6-------------------------|
A|-----------------------------|
E|-----------------------------|

Intro Cont.
e|--4----4--|
B|--4----4--|
G|--4----4--|
D|--6----6--| work out the strumming BAHAHA
A|--7----6--|
E|----------|


How to play it.
----------------

For the first bit :      

e|------4h6--------6h7p6-------|
B|-----------4-----------4-----|
G|-------------4-----------4---|
D|-4h6-------------------------|
A|-----------------------------|
E|-----------------------------|

1. You put your index finger on D,G,B and e strings.
2. Do a hammer-on on the D string to fret 6 with your ring finger
3. Do a hammer-on on the e string to fret 6 with your ring finger
4. pluck the B then the G
5. Do a hammer-on on the e string from fret 6 to fret 7 with you little finger.
6. pluck the B then the G

For the second half :

e|--4----4--|
B|--4----4--|
G|--4----4--|
D|--6----6--| 
A|--7----6--|
E|----------|

1. Keep your index finger barred across D, G, B and e
2. Put your index finger on the 6 fret on the D string
3. Put your little finger on the 7 fret on the A string
4. strum kind of slow (listen to the song and find it out)
5. Move your little finger down to the 6 fret on the A

Do it all Twice: Theres the Intro to 'Day Old Hate'
comments
We did not receive enough feedback on this tab! Please rate:
print report bad tab
1 2 3 4 5
2 comments total.
0 reply
pierre_aw90 wrote on July 6 2007, 02:47 pm

use a capo

0 reply
PINKbandana. wrote on March 7 2008, 10:36 am

this sounds nothing like it.

I want to post or [tab]
guest
You may want to rate the tab now too:
select rating
Please do not post tabs as comments. Select "correction" instead!