Oops, an error
Loading. Please wait.

Day Old Hate Live Tab

version 1
version 1

Whole song

5,676 views 1 this week
1 commentread comment
1 2 3 4 5
accurate
x 4
add to favorites
launch autoscroll
font size
0
reset
how to read this tab
guitar tuner
Tab Pro tools
  • play this tab
  • loop segment
  • change instrument
  • show fretboard
  • metronome
Autoscroll
slow
fast
+/-
esc
set tempo
stop
Difficulty
Tuning
advanced
D A D G B E
Tab by: Daniel Dallmann

Tune Drop D  (DADGBe)

Capo on 4th Fret 

Intro

e|-----0-2-----|-2h-3p-2--------0-532-0--0-|-----------|
B|---------0---|-0----------0---5-5---2--2-|-----------|
G|-------------|-0--------0-0---0-0---0--0-|-----------|
D|--0-2------2-|--------2---2s--4-4---2--4-|-----------|
A|-------------|----------------0-0---3--3-|-----------|
D|-------------|----------------0-0--------|-----------|

Verse
e|-0-2-0--|-0-2-0-0-|
B|-3-3-3--|-3-3-3-3-|
G|-0-0-0--|-0-0-0-0-|
D|-0-0-2--|-0-0-2-4-|
A|-2-2-3--|-2-2-3-3-|
D|-2-0-0--|-2-0-0-0-|

Chorus Same as verse just different strum pattern.

e|-0-2-0-0-|
B|-3-3-3-3-|
G|-0-0-0-0-|
D|-0-0-2-4-|
A|-2-2-3-3-|
D|-2-0-0-0-|
comments
print report bad tab
1 comment total.
0 reply
kris16 wrote on July 28 2007, 02:17 pm

best tab of this song on any site iv ever seen
excelent job, and thnkx a million

I want to post or [tab]
guest
You may want to rate the tab now too:
select rating
Please do not post tabs as comments. Select "correction" instead!