Oops, an error
Loading. Please wait.

Day Old Hate Tab

version 1
version 1

Whole song

Interactive

74,530 views 27 this week
3 commentsread comments
1 2 3 4 5
x 5
add to favorites
launch autoscroll
font size
0
reset
how to read this tab
guitar tuner
Autoscroll
slow
fast
+/-
esc
set tempo
stop
Help us to improve Ultimate-Guitar.com Take our survey!
×
Author
Difficulty
Capo
intermediate
4th fret
This song is in drop D tuning, and capo on 4, another person came close
to nailing the song, but missed a couple key details. so here we go.


INTRO

e|------0h2-------2h3p2------2--|--5------0-|   X2
B|-----------0------------------|--7------3-|
G|-------------0---------0------|--7------0-|
D|---0h2------------------------|--0------2-|
A|------------------------------|--0------3-|
D|------------------------------|-----------|

VERSE  pt 1

e|-2--------------------2h3p2-------2--5---3--|  X3
B|-0-strum a couple -----------0-------7---0--|
G|-0----times lightly------------0-----7---0--|
D|-2-----------------------------------0---2--|
A|-0-------------------while-----------0---3--|
D|---------------------strumming--------------|

VERSE   pt 2

e|2----5---0--|  X2
B|3----7---3--|
G|0----7---0--|
D|2----0---2--|
A|0----0---3--|
D|------------|


CHORUS

e|0--0--| x4
B|3--3--|
G|0--0--|
D|2--0--|
A|0--3--|
D|0-----|


INTRO   X2
VERSE pt 2   X3
CHORUS   X4

Just play Verse pt2 when lead comes on and coninue until the end

I will add lead soon, im too lazy right now
Suggest correction
comments
print report bad tab
3 comments total.
0 reply
ryan1812 10 Sep 28, 2006 10:00 PM

the intro is way off. I figured it out in about 5 mins and it was closer then what is on here. go over the intro again and repost it please.

0 reply
blaxor 144 Oct 23, 2006 05:41 PM

if you figured it out, why not post it?

0 reply
incendiaryheart 51 Oct 23, 2006 10:43 PM

ya i saw it was wrong and figured it out but i havent even had time to play guitar in 3 weeks cause of university, and definitely not tab a song, so whoever fixes it can just post it :)

guest
You may want to rate the tab now too:
select rating
Wanna post a correction for this tab? Suggest correction