Oops, an error
Loading. Please wait.

Day Old Hate Tab

version 3
version 3

Whole song

Interactive

113,740 views 18 this week
14 commentsread comments
1 2 3 4 5
accurate
x 28
add to favorites
launch autoscroll
font size
0
reset
how to read this tab
guitar tuner
Autoscroll
slow
fast
+/-
esc
set tempo
stop
Help us to improve Ultimate-Guitar.com Take our survey!
×
Capo
4th fret
Drop D tuning 
Capo 4

intro

e|------0-2------|-2-3-2---------|--5-then-0-|
B|-----------0---|---------------|--7------3-|
G|---------------|-------0-4---4-|--7------0-|
D|---0-2-------2-|-----------2---|--0------2-|
A|---------------|---------------|--0------3-|
D|---------------|---------------|-----------|

verse
e|2------5---0--|
B|3(or 0)7---3--|
G|0------7---0--|
D|2------0---2--|
A|0------0---3--|
D|--------------|

Chorus
e|0--0--|
B|3--3--|
G|0--0--|
D|2--0--|
A|0--3--|
D|0-----|
Suggest correction
comments
print report bad tab
14 comments total. Showing first comments.
0 reply
miseryforjoy 31 wrote on September 12 2006, 09:10 pm

Its a decent tab, but you're missing a bunch of key hammer on's and pull off's. Other than that its playable and sounds like the song.
****

0 reply
NirvanaFan101 31 wrote on October 11 2006, 08:40 pm

yea i agree ^ ^ ^ .. pretty good..

0 reply
JesseWyllychuk 73 wrote on March 6 2007, 09:21 pm

E|------0-2--2h3p2|---------------|--5-then-0-|
B|-----------0----|---------------|--7------3-|
G|-----------0----|-------0-4---4-|--7------0-|
D|---0-2----------|-----------2---|--0------2-|
A|----------------|---------------|--0------3-|
E|----------------|---------------|-----------|

guest
You may want to rate the tab now too:
select rating
Wanna post a correction for this tab? Suggest correction