Oops, an error
Loading. Please wait.

Day Old Hate Tab

version 4
version 4

Whole song

Interactive

21,427 views 9 this week
3 commentsread comments
1 2 3 4 5
x 7
add to favorites
launch autoscroll
font size
0
reset
how to read this tab
guitar tuner
Autoscroll
slow
fast
+/-
esc
set tempo
stop
Help us to improve Ultimate-Guitar.com Take our survey!
×
Author
Capo
4th fret
Because none of the others are quite right.

Worked out from his live DVD.

Feel free to leave input :)

Won't tab the strumming, as that's fairly easy to work out (and I'm lazy). Also, as it's 
Dallas, it's different every time he plays it, so I won't bother tabbing any of the 
extra little bits he throws in.

Drop D
Capo 4th Fret.

h - hammer on
p - pull off
/ - Slide
~ - Let Ring
= - Strumming


INTRO
e|---------0-2-------2h3p2---2----------0=-------0=------0=------------|
B|-------------0-----0-----3---3--------0=-------2=------2=------------|
G|---------------0---0-----------0------0=-------0=------0=------------|
D|--0-h-2------------2-----------------/4=-------2=------4=------------|
A|-------------------------------------/5=-------3=------3=------------|
D|---------------------------------------------------------------------|

e|---------0-2-------2h3p2---2----------0-5=-----0=------0=------------|
B|-------------0-----0-----3---3--------0-0=-----2=------2=------------|
G|---------------0---0-----------0------0-0=-----0=------0=------------|
D|--0-h-2------------2-----------------/4-4=-----2=------4=------------|
A|-------------------------------------/5-5=-----3=------3=------------|
D|---------------------------------------------------------------------|


VERSE A
e|---0=----------0=-------------0=------0=-----------------------------|
B|---0=----------0=-------------2=------2=-----------------------------|
G|---0=----------2=-------------0=------0=-----------------------------|
D|---4=----------4=-------------2=------4=-----------------------------|
A|---2=----------0=-------------3=------3=-----------------------------|
D|---x-----------0=-------------x-------x------------------------------|

VERSE B
e|---0=-------------------------0=-------------------------------------|
B|---0=-------------------------2=-------------------------------------|
G|---2=-------------------------0=-------------------------------------|
D|---4=-------------------------2=-------------------------------------|
A|---0=-------------------------3=-------------------------------------|
D|---0=-------------------------x--------------------------------------|

Those 3 bits are repeated throughout the song, it's easy to figure out where.

I think this is right. Enjoy :)
Suggest correction
comments
print report bad tab
3 comments total.
+1 reply
SixStringMuzik 10 May 16, 2011 01:57 AM

This isn't right. You're close, but your intro is off, as are some of your chords.

-1 reply
AC/MeC 10 Sep 04, 2013 10:03 AM

Care to suggest better SixStringMuzik?

0 reply
<k0z> 135 Jan 04, 2016 06:30 AM

This is the best tab out there for this song. All his variations can be worked off this perfectly.

guest
You may want to rate the tab now too:
select rating
Wanna post a correction for this tab? Suggest correction