Oops, an error
Loading. Please wait.

Faithless Tab

version 1
version 1

Whole song

2,376 views 1 this week
no commentswrite comment
1 2 3 4 5
2 more votes to show rating
add to favorites
launch autoscroll
font size
0
reset
how to read this tab
guitar tuner
Autoscroll
slow
fast
+/-
esc
set tempo
stop
Help us to improve Ultimate-Guitar.com Take our survey!
×
Author
no capo
listin to the song for strumming patterns


(1st and 2nd verse)
-------------------------------------------|
---3---1-----------------------------------|
---0---0-----------------------------------|
---0---2-----------------------------------|
---2---3-----------------------------------|
---3---------------------------------------|

             repeat over solo until the end
(chorus)
-------------------------------------------|
-----------1-------------------------------|
---2---0---0-------------------------------|
---0---2---2-------------------------------|
---x---2---3-------------------------------|
---2---0-----------------------------------|


(solo)
--------------------------------------------------------------|
----------------3-----------------------------1---5-3---------|
---4-2-4---2h-4---4---2h-4-2-0---4p-2p-0h-2-0---0-----4-2-0---|
--------------------------------------------------------------|
--------------------------------------------------------------|
--------------------------------------------------------------|

thats the whole song, only got the first part of the solo but i will have the rest up soon
Suggest correction
Give kudos to tab author, rate the tab!
1 2 3 4 5
comments
print report bad tab
guest
You may want to rate the tab now too:
select rating
Wanna post a correction for this tab? Suggest correction