Oops, an error
Loading. Please wait.

Forgive Me Tab

version 1
version 1

Intro

Whole song

43,505 views 9 this week
4 commentsread comments
1 2 3 4 5
excellent!
x 7
add to favorites
launch autoscroll
font size
0
reset
how to read this tab
guitar tuner
Autoscroll
slow
fast
+/-
esc
set tempo
stop
Help us to improve Ultimate-Guitar.com Take our survey!
×
Contributor
Capo
2nd fret
Okay so this is Dallas' song "Forgive Me" from the CD/DVD "City and Colour LIVE". I know 
isn't going to be spot on, but atleast it'll give you an idea of how to play it, It 
sound horribly off.

Tuning: Low to high (EADGBe) With a capo on the 2nd fret

e|----------------------|----------------------------|----------------|
B|--0h1-------1h3p1---0-|-1---------1h3p1--3-3p1-----|-0--------0-----|
G|-------0--------------|----2-------------------0---|----------------|
D|---------2------------|------2-------------------0-|-----3----------|
A|--3--------3--------2-|-0------0---------2---------|---3---3-----3--|
E|----------------------|------------------3---------|-1--------1-----|

 |--------------------------0---------------0---|
 |-----------1----0h1-----1---1-----1-----1---1-|
 |-------------0------2---------------0---------|
 |----------------------2-----------------------|
 |-----2---2------0-----------------2---2-------|
 |-1h3---3--------------------------------------|

Again, I know that's night entirely right, but I'm pretty sure some of it is. That's 
throughout most of the song, Ending with...

 |--0-0-0-0-0-0---0-0-0-0-|       |--0-0-0-0-0-0-0-0-0-0-|
 |--0-0-0-0-0-0h1-1-1-1-1-|       |--0-0-0-0-0-0-0-0-0-0-|
 |--2-2-2-2-2-2---2-2-2-2-|   X2  |--2-2-2-2-2-2-2-2-2-2-|  X2
 |--2-2-2-2-2-2---2-2-2-2-|       |--3-3-3-3-3-3-3-3-3-3-|
 |--0-0-0-0-0-0---0-0-0-0-|       |--3-3-3-3-3-0-0-0-0-0-|
 |--0-0-0-0-0-0---0-0-0-0-|       |--1-1-1-1-1-1-1-1-1-1-|

On the last time its played...

This part is the same             The other part is played the same and it
on the last time its              slows down gradually.
played like this
 |--0---0-0-0-|
 |--0h1-3-1-0-|
 |--2---2-2-2-|
 |--2---2-2-2-|
 |--0---0-0-0-|
 |--0---0-0-0-|

The song ends on
 |--0--|
 |--1--|
 |--2--|
 |--2--|
 |--0--|
 |--0--|

And there it is. Hopefully it helps someone good who can tab it perfectly. Enjoy.
comments
print report bad tab
4 comments total. Showing first comments.
0 reply
Nikky666 87 wrote on May 9 2007, 05:57 pm

My apologies, I misspelled a lot of things and forgot some words

0 reply
alexc123 17 wrote on June 23 2007, 05:24 am

Nice Tab Man! thnx for tabbing this it sounds pretty much all correct i love city and colour :) x

0 reply
angelfromhell99 64 wrote on July 12 2009, 03:16 pm

Great tab man, just the original key of the song doesn't have a capo on the second fret. Sounds perfect!

I want to post or [tab]
guest
You may want to rate the tab now too:
select rating
Please do not post tabs as comments. Select "correction" instead!