Oops, an error
Loading. Please wait.

Forgive Me Tab

version 1
version 1

Whole song

25,927 views 6 this week
5 commentsread comments
1 2 3 4 5
accurate
x 5
add to favorites
launch autoscroll
font size
0
reset
how to read this tab
guitar tuner
Tab Pro tools
  • play this tab
  • loop segment
  • change instrument
  • show fretboard
  • metronome
×
Best way to learn
"Forgive Me"
Autoscroll
slow
fast
+/-
esc
set tempo
stop
Capo
2nd fret
 CAPO on 2nd fret , jus follow and u might catch my drift (chukles_222@hot)


tuning (Eb,Ab,Db,Gb,Bb,eb)

(intro)
>---------------------------------------------------------<
>-0h1-----1h3--0---------0h1---1h3--0--------3-3p1p0------<
>-0-----0------0------0--0-----------0--------------------<
>---------------------------------------------------------<
>-3---3--------2----2----0----0--------2---2--------------<
>---------------------------------------0h3---------------<

>-0--------0-------------0---0-3--------------<
>-0--------0---------1-----1----3---3p1p0-----<
>-0-----0--0---------0------------------------< x2
>-3--3-----0--0-------------------------------<
>-3--------5---5---0---0---------0h2----------<
>-1-1--1---3-3--------------------------------<

>-------------------------------------------|
>--0h1----1h3--0---3------1h3---3-------0---|
>--0-----0-----0----------0-----0------0----|
>-------------------------------------------|
>--3---3-------2-------0------2---2---------|
>----------------------------------0h3------|
 So i cross my heart, and hope to die
>--------------------------------------------|
>-------3-----------3-------3-3p1p0----------|
>---0----0------0----0-----------------------|
>---3-----------0----------------------------|
>-----3-----------5------0h2-----------------|
>-1-----------3------------------------------|
Before i have, the chance to lie

Thats it through the song////////////the main part i am still working on (see ive
known to fall in love)
comments
print report bad tab
5 comments total. Showing first comments.
0 reply
justin_dunning wrote on April 11 2008, 01:47 pm

theres no point in having it a half step down if theres a Capo, just move the capo

0 reply
BrofUJu wrote on May 5 2008, 06:35 pm

It actually should just be in standard tuning, lol

0 reply
stickyfingerz wrote on April 16 2009, 05:45 pm

who gives a **** how he says the capo should be done, still a good tab, good job

I want to post or [tab]
guest
You may want to rate the tab now too:
select rating
Please do not post tabs as comments. Select "correction" instead!