Oops, an error
Loading. Please wait.

Fragile Bird Tab

version 2
version 2

Whole song

Interactive

11,876 views 3 this week
no commentswrite comment
1 2 3 4 5
please rate
add to favorites
launch autoscroll
font size
0
reset
how to read this tab
guitar tuner
Tab Pro tools
  • play this tab
  • loop segment
  • change instrument
  • show fretboard
  • metronome
×
Best way to learn
"Fragile Bird"
Autoscroll
slow
fast
+/-
esc
set tempo
stop
Contributor
============================================
City And Colour - Fragile Bird (Little Hell)
============================================

Great Song, heres how I play it on acoustic. 2nd gtr needed.

Tabbed by Yas

Intro riff - Gtr 2
e|---------------------------------------------------|
B|--12-12-12-12-12-12-12-12\10-10-10-10-10-10-10-10/-|
G|--12-12-12-12-12-12-12-12\9--9--9--9--9--9--9--9/--|
D|---------------------------------------------------|
A|---------------------------------------------------|
E|---------------------------------------------------|

Verse riff - Gtr 1
         Am              Am              G               F#
e|--------------------------------------------------------------------|
B|--------------------------------------------------------------------|
G|--------------------------------------------------------------------|
D|-------7-x-7-x-7-x-----7-x-7-x-7-x-----5-x-5-x-5-x-----4-x-4-x-4-x--|
A|-------7-x-7-x-7-x-----7-x-7-x-7-x-----5-x-5-x-5-x-----4-x-4-x-4-x--|
E|--3/-5-5-x-5-x-5-x-3/5-5-x-5-x-5-x-5\3-3-x-3-x-3-x-3\2-2-x-2-x-2-x--|

Am                          G              F#
When she sleeps, there is a fever dream, yeah
            Am                          G            F#
It brings a night terror, to haunt this fragile bird

(Gtr 2 intro riff)
    Am                                G               F#
She speaks in tongues, her words they come undone, yeah
             Am                           G                F#
And with the way with mind, she struggles through the night

=======
Chorus: (open chords work great with this chorus)
=======

Gtr 1
    Dsus2                   Em      F
e|-----------------------------------------------------------------|
B|-----------------------------------------------------------------|
G|--7-7-7-7-7-7-7-7-7-7-7-7-7-7-7-7--------------------------------|
D|--7-7-7-7-7-7-7-7-7-7-7-7-9-9-9-9-7-7-7-7-7-7-7-7-7-7-7-7-7-7-7--|
A|--5-5-5-5-5-5-5-5-5-5-5-5-7-7-7-7-8-8-8-8-8-8-8-8-8-8-8-8-8-8-8--|
E|----------------------------------8-8-8-8-8-8-8-8-8-8-8-8-8-8-8--|
    'All_______________that I   can Do___________________________'
'is hope_______________she makes it Through______________________'


Gtr 2
e|---------------------------8--8---------------------------------|
B|----------10----------10----10-10--------10---------------10----|
G|--(12)-12----12-(12)----12-------(12)-12----12--10--12------12--|
D|----------------------------------------------------------------|
A|----------------------------------------------------------------|
E|----------------------------------------------------------------|


            (Verse Riff)
            Am                 G     F#    Am   G   F#
through the night, through the night

========
Verse 2: (same as verse 1)
========
These cold nightmares
They make her worse for where
Lost in the dark
She's got a heavy heart

And when she wakes
In her fragile state
When she calls my name
Hopin that I keep her safe

=========
Chorus 2:
=========
All that I can do
Is hope she makes it through
All that I can do
Is hope she makes it through

=====
Solo: (not yet figured out, verse riff played over)
=====

Through the night (x4)

=========
Chorus 3:
=========
All that I can do
Is hope she makes it through
All that I can do
Is hope she makes it through
            Am
Through the night

======================
end - comments welcome
======================
comments
We did not receive enough feedback on this tab! Please rate:
print report bad tab
1 2 3 4 5
I want to post or [tab]
guest
You may want to rate the tab now too:
select rating
Please do not post tabs as comments. Select "correction" instead!