Oops, an error
Loading. Please wait.

Friends chords

5,666 views 33 this week
1 commentread comment
1 2 3 4 5
x 10
add to favorites
×
Save as Personal and add changes to this tab that will be seen only by you. Learn more ›
×
You can save this tab as Personal to edit and correct it or add notes. All changes will be seen only by you. Learn more »
launch autoscroll
font size
0
reset
transpose
0
reset
display chords
guitar tuner
edit
Autoscroll
slow
fast
+/-
esc
set tempo
stop
Author
Difficulty
Unregistered
Strumming
There is no strumming pattern for this song yet. and get +5 IQ
From the new album 'If I Should Go Before You'
City And Colour - 'Friends'

Standard tuning, NO CAPO


[Intro]

A       D
A       D
A       D


[Verse 1]

A
Here I am again Trading in a group of friends
D
To hopefully make amends With everything I've done wrong
A
A last ditch effort To find something better
D
And leave well enough alone


[Chorus]

F#m                              E
I will wait for all the words of happiness
          D                             A     D
I will wait for all the words of jubilation
F#m                               E
I will hope for just an ounce of confidence
D                               A     D
To offer myself some sort of congratulations


[Instrumental]

A       D
A       D


[Verse 2]

A
There is a light I'm trying to find
Between the water and the open sky
D
I know that's where the wild winds blow
A
Through times of trouble
Or just a simple stumble
D
I can go and make some real good noise


[Chorus]

F#m                                  E
Still I wait for all the words of happiness
        D                           A     D
Still I wait for all the words of jubilation
F#m                                   E
I will hope for just an ounce of confidence
D                                   A     D
To offer myself some sort of congratulations


[Instrumental]

A       D


[Bridge]

E                               D
I wanna live where the wild winds blow
A               D
I know
E                               D
I wanna live where the wild winds blow
A               D
I know


[Outro]

A       D
A       D 
etc.

            
            
Suggest correction
Creating personal tab
Creating personal tab
You can edit any tab online and save it as your Personal.

You can edit, replace or remove any tab part or add personal notes – all changes will be seen only by you.

Personal tabs can be accessed anytime from any device, even offline.
Learn more »
comments
print report bad tab
1 comment total.
+3 reply
steampunkalien 359 Jun 15, 2016 10:17 AM

A lot of this is really accurate. I just have not necessarily corrections, but just something to add to this tab. My only correction is that instead of D you should play Dsus2, so the chord shapes would be:
A (577655)
Dsus2 (x5775x)
F#m (244222)
E (022100)

The other thing I wanted to add to this tab is the 2nd guitar riff for the intro and throughout the rest of the song. It's a pretty prominent part of the song. I think I figured it out.
A A
|--------------------------|---------------------------|
|------5---5/7-5-----------|------5---5/7-5------------|
|-4/6-6---6-------6p4----4-|-4/6-6---6-------6p4---4---|
|--------------------7-7---|--------------------7----7-|
|--------------------------|---------------------------|
|--------------------------|---------------------------|
Dsus2
|-----------------------|
|----5---5---------5----|
|----7----7-6h7----7p6--|
|-7--7-------------7----|
|----5-------------5----|
|-----------------------|
A A
|--------------------------|-----5-5-4---------------|
|------5---5/7-5-----------|-----------5-----5-------|
|-4/6-6---6-------6p4----4-|-4/6---------4/6---6-4---|
|--------------------7-7---|-----------------------7-|
|--------------------------|-------------------------|
|--------------------------|-------------------------|
Dsus2
|-----------------------|
|----5---5---------5----|
|----7----7-6h7----7p6--|
|-7--7-------------7----|
|----5-------------5----|
|-----------------------|

guest
Wanna post a correction for this tab? Suggest correction