Oops, an error
Loading. Please wait.

Hello Im In Delaware Tab

version 2
version 2

Whole song

Interactive

482,544 views 402 this week
32 commentsread comments
1 2 3 4 5
x 78
add to favorites
launch autoscroll
font size
0
reset
how to read this tab
guitar tuner
Autoscroll
slow
fast
+/-
esc
set tempo
stop
Help us to improve Ultimate-Guitar.com Take our survey!
×
Author
Capo
4th fret
Song: Hello, I'm in Delaware 
Artist: Dallas Green
Album: The Death of Me EP 
Tabbed by:  Alejandro D'Brot 
            alexbrot@hotmail.com

Tuning: DGDGBe - Capo on 4th Fret

NOTE: Dallas varies things a lot and I don't intend to tab out every note he plays,
but this is the basic structure of the song.


[Intro]

e|---0---0---------------------------0---0---| 
B|---3---3--2/3\2\0------------------3---0---|
G|---2---0----------2/4\2\0----------0---0---| x2
D|---0---0------------------2/4\2\0--0---7---|
G|---4---0---------------------------4---7---|
D|---0---0---------------------------2---5---|


[Verse]

e|---0---0---------------------------0---0---| 
B|---3---3--2/3\2\0------------------3---0---|
G|---2---2----------2/4\2\0----------0---0---| x4
D|---0---0------------------2/4\2\0--0---7---|
G|---4---0---------------------------4---7---|
D|---0---0---------------------------2---5---|


[Pre-Chorus]

e|---2--------------------0--------------------0---| 
B|---3--------------------3--------------------0---|
G|---0--------------------0--------------------0---|
D|---4-------0h2h4-----0--4-------0h2h4-----0--7---|
G|---2-0h2h4-------2p0----4-0h2h4-------2p0----7---|
D|---0--------------------2--------------------5---|


[Chorus]

e|---0---0---0---| 
B|---3---0---0---|
G|---0---0---0---| x2
D|---4---4---7---|
G|---2---4---7---|
D|---0---2---5---|


[Instrumental]

e|---0---0---------------------------0---0---| 
B|---3---3--2/3\2\0------------------3---0---|
G|---2---0----------2/4\2\0----------0---0---| x2
D|---0---0------------------2/4\2\0--0---7---|
G|---4---0---------------------------4---7---|
D|---0---0---------------------------2---5---|


[Verse]

e|---0---0---------------------------0---0---| 
B|---3---3--2/3\2\0------------------3---0---|
G|---2---2----------2/4\2\0----------0---0---| x4
D|---0---0------------------2/4\2\0--0---7---|
G|---4---0---------------------------4---7---|
D|---0---0---------------------------2---5---|


[Pre-Chorus]

e|---2--------------------0--------------------0---| 
B|---3--------------------3--------------------0---|
G|---0--------------------0--------------------0---|
D|---4-------0h2h4-----0--4-------0h2h4-----0--7---|
G|---2-0h2h4-------2p0----4-0h2h4-------2p0----7---|
D|---0--------------------2--------------------5---|


[Chorus]

e|---0---0---0---| 
B|---3---0---0---|
G|---0---0---0---| x2
D|---4---4---7---|
G|---2---4---7---|
D|---0---2---5---|


[Verse]

e|---0---0---------------------------0---0---| 
B|---3---3--2/3\2\0------------------3---0---|
G|---2---2----------2/4\2\0----------0---0---| x2
D|---0---0------------------2/4\2\0--0---7---|
G|---4---0---------------------------4---7---|
D|---0---0---------------------------2---5---|


[Chorus]

e|---0---0---0---| 
B|---3---0---0---|
G|---0---0---0---| x4
D|---4---4---7---|
G|---2---4---7---|
D|---0---2---5---|


[End]

e|---0---| 
B|---0---|
G|---0---|
D|---4---|
G|---2---|
D|---0---|



***********************

|p  pull-off 
|h  hammer-on 
|/  slide up
|\  slide down

***********************
Suggest correction
comments
print report bad tab
32 comments total. Showing first comments. show 1 bad comment
0 reply
Canuck_22 20 Mar 22, 2006 09:26 PM

....good tab anyways

+4 reply
Hennah 20 Jun 18, 2006 04:50 AM

awesome tab mate, loving it. i think when your playing the proper power chords like 577 you should jus play 57 . It seems to sound better. It could just be me tho

Great tab anyways :D

guest
You may want to rate the tab now too:
select rating
Wanna post a correction for this tab? Suggest correction