Oops, an error
Loading. Please wait.

Hello Im In Delaware Tab

version 3
version 3

Whole song

Interactive

22,764 views 3 this week
4 commentsread comments
1 2 3 4 5
accurate
x 9
add to favorites
launch autoscroll
font size
0
reset
how to read this tab
guitar tuner
Tab Pro tools
  • play this tab
  • loop segment
  • change instrument
  • show fretboard
  • metronome
×
Best way to learn
"Hello Im In Delaware"
Autoscroll
slow
fast
+/-
esc
set tempo
stop
Contributor
Capo
4th fret
----------------------------------------------------------------------------
                             SONG NAME - Band Name
----------------------------------------------------------------------------
Tabbed by:Sean
Email:wings217@hotmail.com

This tab is definetly not 100% correct, because Dallas plays it in
a different tuning, but for all of those guys that don't like taking
the time to tune your guitar, or who simply can't, this is pretty
accurate in standard tuning.

Tuning:EADGBe capo on 4th

intro/verse:
e|-0----0------------------------------0----0-------|
B|-3----3---2/3\3-0--------------------3----0-------|
G|-2----0-----------2/4\2-0------------0----0-------|
D|-0----2-------------------2/4\2-0----0----7-------|
A|-2----0------------------------------2----5-------|
E|-0----3------------------------------0----3-------|

pre-chorus:
e|--2----------------------0----------------------0---|
B|--3----------------------3----------------------0---|
G!--0----------------------0----------------------0---|
D|--4----------------------4----------------------7---|
A|--0---------7h9h11-----7-2---------7h9h11-----7-5---|
E|--0---3h5h7--------5p3---0---3h5h7--------5p3---3---|

chorus:
e|-0--0--0---|
B|-3--0--0---|
G|-0--0--0---|
D|-4--4--7---|
A|-0--2--5---|
E|-0--0--3---|


| /  slide up
| \  slide down
| h  hammer-on
| p  pull-off
| ~  vibrato
| +  harmonic
| x  Mute note
============================================================================
comments
print report bad tab
4 comments total. Showing first comments.
0 reply
CMJPEC wrote on January 2 2006, 10:41 pm

much better then the other one, you guys are still missing a couple slides in there thats why i only gave it a four, and the chords dont stay consistent through out the whole verse, he drops out the slide part and just plays chords for part of it, i'd put my tab online but i dono if it would get excepted cause it woudl seem like i copied off you to much, go back listen and edit your tab, otherwise its very good

0 reply
seanp wrote on January 8 2006, 02:47 pm

I don't care that you only gave me a four, because I admit this is not 100% correct, because I figure that the people out there have actually heard the song and can compensate for the part of the verse when he doesn't do the slides. give people more credit

0 reply
Dystiller wrote on November 1 2006, 04:43 pm

totally wrong man

I want to post or [tab]
guest
You may want to rate the tab now too:
select rating
Please do not post tabs as comments. Select "correction" instead!