Oops, an error
Loading. Please wait.

Hello Im In Delaware Tab

version 4
version 4

Whole song

Interactive

11,185 views 3 this week
no commentswrite comment
1 2 3 4 5
please rate
add to favorites
launch autoscroll
font size
0
reset
how to read this tab
guitar tuner
Autoscroll
slow
fast
+/-
esc
set tempo
stop
Help us to improve Ultimate-Guitar.com Take our survey!
×
Difficulty
novice
[intro]
e|---0---0---------------------------0---0---| 
B|---3---3--2/3\2\0------------------3---0---|
G|---2---0----------2/4\2\0----------0---0---|
D|---0---0------------------2/4\2\0--0---7---|
G|---4---0---------------------------4---7---|
D|---0---0---------------------------2---5---|


[ verse ]
e|---0---0---------------------------0---0---| 
B|---3---3--2/3\2\0------------------3---0---|
G|---2---2----------2/4\2\0----------0---0---|
D|---0---0------------------2/4\2\0--0---7---|
G|---4---0---------------------------4---7---|
D|---0---0---------------------------2---5---|

So there goes my life passing by with every exit sign 
It's been so long sometimes I wonder how I will stay strong 

e|---0---0------0---0---| 
B|---3---3------3---0---|
G|---2---2------0---0---|
D|---0---0------0---7---|
G|---4---0------4---7---|
D|---0---0------2---5---|

No sleep tonight, I'll keep on driving these dark highway lines 
And as the moon fades, one more night gone, only twenty more days 


[ pre-chorus ]
e|---2--------------------0--------------------0---| 
B|---3--------------------3--------------------0---|
G|---0--------------------0--------------------0---|
D|---4-------0h2h4-----0--4-------0h2h4-----0--7---|
G|---2-0h2h4-------2p0----4-0h2h4-------2p0----7---|
D|---0--------------------2--------------------5---|


[ chorus ]      
e|---0---0---0---| 
B|---3---0---0---|
G|---0---0---0---|
D|---4---4---7---|
G|---2---4---7---|
D|---0---2---5---|

But I will see you again, I will see you again 
A long time from now 


[ verse 2]
e|---0---0---------------------------0---0---| 
B|---3---3--2/3\2\0------------------3---0---|
G|---2---2----------2/4\2\0----------0---0---|
D|---0---0------------------2/4\2\0--0---7---|
G|---4---0---------------------------4---7---|
D|---0---0---------------------------2---5---|

And there goes my life, passing by with every departing flight 
And its been so hard, so much time so far apart

e|---0---0------0---0---| 
B|---3---3------3---0---|
G|---2---2------0---0---|
D|---0---0------0---7---|
G|---4---0------4---7---|
D|---0---0------2---5---|

And she walks the night, how many hearts will die tonight 
And when things have changed, I guess I'll find out in seventeen days 

[ pre-chorus ]
E|---2--------------------0--------------------0---| 
B|---3--------------------3--------------------0---|
G|---0--------------------0--------------------0---|
D|---4-------0h2h4-----0--4-------0h2h4-----0--7---|
G|---2-0h2h4-------2p0----4-0h2h4-------2p0----7---|
D|---0--------------------2--------------------5---|


[ chorus ]      
e|---0---0---0---| 
B|---3---0---0---|
G|---0---0---0---|
D|---4---4---7---|
G|---2---4---7---|
D|---0---2---5---|
But I will see you again, ill see you again 
A long time from now 


[ verse 3]
e|---0---0------0---0---| 
B|---3---3------3---0---|
G|---2---2------0---0---|
D|---0---0------0---7---|
G|---4---0------4---7---|
D|---0---0------2---5---|

My body aches and it hurts to say, no one is moving 
And I wish that I weren't here tonight but this is my life. 

[ chorus ]      
e|---0---0---0---| 
B|---3---0---0---|
G|---0---0---0---|
D|---4---4---7---|
G|---2---4---7---|
D|---0---2---5---|

And I will see you again 
I will see you again a long time from now 

And I will see you again 
I will see you again a long time from now

end on:

e|---0---| 
B|---0---|
G|---0---|
D|---4---|
G|---2---|
D|---0---|
Suggest correction
Give kudos to tab author, rate the tab!
1 2 3 4 5
comments
print report bad tab
guest
You may want to rate the tab now too:
select rating
Please do not post tabs as comments. Select "correction" instead!