Oops, an error
Loading. Please wait.

Hello Im In Delaware Tab

version 5
version 5

Whole song

Interactive

209,688 views 207 this week
15 commentsread comments
1 2 3 4 5
excellent!
x 108
add to favorites
launch autoscroll
font size
0
reset
how to read this tab
guitar tuner
Autoscroll
slow
fast
+/-
esc
set tempo
stop
Help us to improve Ultimate-Guitar.com Take our survey!
×
Author
Tuning
Capo
D G D G B D
4th fret
Song: Hello I'm In Delaware
Artist: Dallas Green aka City and Colour
Album: The death of Me EP/Sometimes
Tabbed out by: Justin Dunning
               E-mail  - madman_justins_pressurecooker@hotmail.com
               Myspace – www.myspace.com/the_juice_stain


3\4 Q= 96 (approximately)

Tuning: DGDGBe CAPO Fret 4 
        The Top Two strings (E,A) are tuned a full tone down to match       the third and fourth strings 


Legend:
/ - Slide Up
\ - Slide Down
p – Pull off
h – Hammer on


*OK so each one of the chords Stands for one set of the strumming,  
 Down, Down, Up, Down, Up


e|---0-0--0-0--------------------------0-0--0-0--| 
B|---3-3--3-3-2/3\2p0------------------3-3--0-0--|
G|---2-2--0-0---------2/4\2p0----------0-0--0-0--|     X 2
D|---0-0--0-0-----------------2/4\2p0--0-0--7-7--|
G|---4-4--0-0--------------------------4-4--7-7--|
D|---0-0--0-0--------------------------2-2--5-5--|

|-0-0----------------0-----------------------------|
|-3-3----------------3-----2/3\2p0-----------------|
|-2-2----------------2-------------2/4\2p0---------|
|-0-0----------------0---------------------2/4\2p0-|
|-4-4----------------0-----------------------------|
|-0-0----------------0-----------------------------|
    So there goes my life,  

|-0-0---------------0-----0---------|
|-3-3---------------0-----0---------|
|-0-0---------------0-----0---------|
|-0-0---------------7-----7---------|
|-4-4---------------7-----7---------|
|-2-2---------------5-----5---------|
    Passing by with every exit sign.

|-0-0------------0---------------------------|
|-3-3------------3---2/3\2p0-----------------|
|-2-2------------2-----------2/4\2p0---------|
|-0-0------------0-------------------2/4\2p0-|
|-4-4------------0---------------------------|
|-0-0------------0---------------------------|
    It's been so long,  

|-0-----------0----------0-----------0------|
|-3-----------3----------0-----------0------|
|-0-----------0----------0-----------0------|
|-0-----------0----------7-----------7------|
|-4-----------4----------7-----------7------|
|-2-----------2----------5-----------5------|
  Sometimes I wonder how I will stay strong.


|-0-0----------0-----0-----------|
|-3-3----------3-----3-----------|
|-2-2----------2-----2-----------|
|-0-0----------0-----0-----------|
|-4-4----------0-----0-----------|
|-0-0----------0-----0-----------|
    No sleep tonight,     

|-0------------0--------------0------------0------|
|-3------------3--------------0------------0------|
|-0------------0--------------0------------0------|
|-0------------0--------------7------------7------|
|-4------------4--------------7------------7------|
|-2------------2---- ---------5------------5------|
  I'll keep on driving these  dark highway lines.

|-0-0---------------0-------0-----------|
|-3-3---------------3-------3-----------|
|-2-2---------------2-------2-----------|
|-0-0---------------0-------0-----------|
|-4-4---------------0-------0-----------|
|-0-0---------------0-------0-----------|
    And as the moon fades,     

|-0--------------0----------0-----------0------|
|-3--------------3----------0-----------0------|
|-0--------------0----------0-----------0------|
|-0--------------0----------7-----------7------|
|-4--------------4----------7-----------7------|
|-2--------------2---- -----5-----------5------|
  One more night gone, only twenty more days

|---2--------------------0--------------------0-0-0-0----------|
|---3--------------------3--------------------0-0-0-0----------|
|---0--------------------0--------------------0-0-0-0----------|
|---4-------0h2h4-----0--4-------0h2h4-----0--7-7-7-7----------|
|---2-0h2h4-------2p0----4-0h2h4-------2p0----7-7-7-7----------|
|---0--------------------2--------------------5-5-5-5----------|
                                                    But I will

|---0-----0-----0-----0--------0----0----0------0-|
|---3-----3-----0-----0--------0----0----0------0-|
|---0-----0-----0-----0--------0----0----0------0-|
|---4-----4-----4-----4--------7----7----7------7-|
|---2-----2-----4-----4--------7----7----7------7-|
|---0-----0-----2-----2--------5----5----5------5-|
      see you  again,   I will see  you  again,

|----0----0--0----0--------0-0-0-0-|
|----3----3--0----0--------0-0-0-0-|
|----0----0--0----0--------0-0-0-0-|
|----4----4--4----4--------7-7-7-7-|
|----2----2--4----4--------7-7-7-7-|
|----0----0--2----2--------5-5-5-5-|
  a  long    time   from   now.

|---0-0--0-0--------------------------0-0--0-0--| 
|---3-3--3-3-2/3\2p0------------------3-3--0-0--|
|---2-2--0-0---------2/4\2p0----------0-0--0-0--|     X 2
|---0-0--0-0-----------------2/4\2p0--0-0--7-7--|
|---4-4--0-0--------------------------4-4--7-7--|
|---0-0--0-0--------------------------2-2--5-5--|

|-0-0----------------0-----------------------------|
|-3-3----------------3-----2/3\2p0-----------------|
|-2-2----------------2-------------2/4\2p0---------|
|-0-0----------------0---------------------2/4\2p0-|
|-4-4----------------0-----------------------------|
|-0-0----------------0-----------------------------|
    So there goes my life,  

|-0-0---------------0-----0----------------|
|-3-3---------------0-----0----------------|
|-0-0---------------0-----0----------------|
|-0-0---------------7-----7----------------|
|-4-4---------------7-----7----------------|
|-2-2---------------5-----5----------------|
    Passing by with every departing flight.

|-0-0------------0---------------------------|
|-3-3------------3---2/3\2p0-----------------|
|-2-2------------2-----------2/4\2p0---------|
|-0-0------------0-------------------2/4\2p0-|
|-4-4------------0---------------------------|
|-0-0------------0---------------------------|
    It's been so hard,                                             

|-0-------0-------0-----0------|
|-3-------3-------0-----0------|
|-0-------0-------0-----0------|
|-0-------0-------7-----7------|
|-4-------4-------7-----7------|
|-2-------2-------5-----5------|
  So much time so   far apart.

|-0-----0-------------0------0-----------|
|-3-----3-------------3------3-----------|
|-2-----2-------------2------2-----------|
|-0-----0-------------0------0-----------|
|-4-----4-------------0------0-----------|
|-0-----0-------------0------0-----------|
    And she walks the night,  

|-0--------0------0----------0-------|
|-3--------3------0----------0-------|
|-0--------0------0----------0-------|
|-0--------0------7----------7-------|
|-4--------4------7----------7-------|
|-2--------2------5----------5-------|
  How many hearts will die tonight?

|-0-0--------------------0---------0-----------|
|-3-3--------------------3---------3-----------|
|-2-2--------------------2---------2-----------|
|-0-0--------------------0---------0-----------|
|-4-4--------------------0---------0-----------|
|-0-0--------------------0---------0-----------|
    And will things have changed?  

|-0------------0-----------0---------0------|
|-3------------3-----------0---------0------|
|-0------------0-----------0---------0------|
|-0------------0-----------7---------7------|
|-4------------4-----------7---------7------|
|-2------------2-----------5---------5------|
  I guess I'll find out in seventeen days.

|---2--------------------0--------------------0-0-0-0----------|
|---3--------------------3--------------------0-0-0-0----------|
|---0--------------------0--------------------0-0-0-0----------|
|---4-------0h2h4-----0--4-------0h2h4-----0--7-7-7-7----------|
|---2-0h2h4-------2p0----4-0h2h4-------2p0----7-7-7-7----------|
|---0--------------------2--------------------5-5-5-5----------|
                                                    But I will

|---0-----0-----0-----0--------0----0----0------0-|
|---3-----3-----0-----0--------0----0----0------0-|
|---0-----0-----0-----0--------0----0----0------0-|
|---4-----4-----4-----4--------7----7----7------7-|
|---2-----2-----4-----4--------7----7----7------7-|
|---0-----0-----2-----2--------5----5----5------5-|
      see you  again,   I will see  you  again,

|----0----0--0----0--------0-0-0-0-|
|----3----3--0----0--------0-0-0-0-|
|----0----0--0----0--------0-0-0-0-|
|----4----4--4----4--------7-7-7-7-|
|----2----2--4----4--------7-7-7-7-|
|----0----0--2----2--------5-5-5-5-|
  a  long    time   from   now.

|-0--0--------------0---------0-------------|
|-3--3--------------3---------3-------------|
|-2--2--------------2---------2-------------|
|-0--0--------------0---------0-------------|
|-4--4--------------0---------0-------------|
|-0--0--------------0---------0-------------|
     My body aches,    And it hurts to sing

|-0--0-------0---0---------|
|-3--3-------0---0---------|
|-0--0-------0---0---------|
|-0--0-------7---7---------|
|-4--4-------7---7---------|
|-2--2-------5---5---------|
     No one      is moving.

|-0--0------------------0----------0------------|
|-3--3------------------3----------3------------|
|-2--2------------------2----------2------------|
|-0--0------------------0----------0------------|
|-4--4------------------0----------0------------|
|-0--0------------------0----------0------------|
     And I wish that I     weren't here tonight,        

|-0--0--------------0-------0---------|
|-3--3--------------0-------0---------|
|-0--0--------------0-------0---------|
|-0--0--------------7-------7---------|
|-4--4--------------7-------7---------|
|-2--2--------------5-------5---------|
     But this is my life.   And I will

|---0-----0-----0-----0--------0----0----0------0-|
|---3-----3-----0-----0--------0----0----0------0-|
|---0-----0-----0-----0--------0----0----0------0-|
|---4-----4-----4-----4--------7----7----7------7-|
|---2-----2-----4-----4--------7----7----7------7-|
|---0-----0-----2-----2--------5----5----5------5-|
      see you  again,   I will see  you  again,

|----0----0--0----0--------0-0-0-0---------|
|----3----3--0----0--------0-0-0-0---------|
|----0----0--0----0--------0-0-0-0---------|
|----4----4--4----4--------7-7-7-7---------|
|----2----2--4----4--------7-7-7-7---------|
|----0----0--2----2--------5-5-5-5---------|
  a  long    time   from   now.  And I will 

|---0-----0-----0-----0--------0----0----0------0-|
|---3-----3-----0-----0--------0----0----0------0-|
|---0-----0-----0-----0--------0----0----0------0-|
|---4-----4-----4-----4--------7----7----7------7-|
|---2-----2-----4-----4--------7----7----7------7-|
|---0-----0-----2-----2--------5----5----5------5-|
      see you  again,   I will see  you  again,

|----0----0--0----0--------0-0-0-0-|
|----3----3--0----0--------0-0-0-0-|
|----0----0--0----0--------0-0-0-0-|
|----4----4--4----4--------7-7-7-7-|
|----2----2--4----4--------7-7-7-7-|
|----0----0--2----2--------5-5-5-5-|
  a  long    time   from   now.

|---0---| 
|---0---|
|---0---|
|---4---|
|---2---|
|---0---|
Suggest correction
comments
print report bad tab
15 comments total. Showing first comments.
+1 reply
Indie_boy 10 wrote on July 1 2007, 06:08 pm

awesome tab !!

+1 reply
cuberonix 292 wrote on March 2 2008, 01:13 am

yeah, great tab, 5 stars

+1 reply
GaaryAzn101 10 wrote on June 7 2008, 12:11 pm

very excellent tab, it sound exactly the same!!
5 stars from me.

guest
You may want to rate the tab now too:
select rating
Wanna post a correction for this tab? Suggest correction