Oops, an error
Loading. Please wait.

In The Water I Am Beautiful Tab

version 2
version 2

Whole song

21,973 views 3 this week
no commentswrite comment
1 2 3 4 5
accurate
x 3
add to favorites
launch autoscroll
font size
0
reset
how to read this tab
guitar tuner
Autoscroll
slow
fast
+/-
esc
set tempo
stop
Help us to improve Ultimate-Guitar.com Take our survey!
×
p= pull-off 
h= hammer-on 
/= slide up

Tuning: Standard

[intro/verse]

e|-0---0-0---0---0----| 
B|-0---0-0---0---5p0--|
G|-4---4/7---0---0----|
D|-2---0-0---0---0----|
A|-0---2/5---4---5----|
E|-------7---2---3----|

in this part, he does random arpeggios for the last two 

chords

[chorus]

i:
e|-------0--0--| 
B|-2--2--0--0--|
G|-2--2--4-/6--|
D|-0--0--2/-5--|
A|-0--x--2/-5--|
E|-2h-3--0--x--|

ii: 
palm mute
e|---------------------------|-----------| 
B|---------------------------|-----------|
G|--------------6----4----6--|------6----|
D|---4-4-4----5-5--0h2----5--|-4-4--5-5--|
A|---4-5-4----5-5--0h2----5--|-5-4--5-5--|
E|-0h2-2-2--0h3-3--0-0--0h3--|-2-2--3-3--|
then unmute for "I already lost you"
e|---------| 
B|---------|
G|-4-/6----|
D|-2/-5----|
A|-2/-5----|
E|-0-------|

[outro]
e|-0-0-----0-0-----0-0-----0-0--3-2-2--| 
B|-0-0--2--0-0--2--0-0--2--0-0--3-3-3--|
G|-4-4--2--4-4--2--4-4--2--4-4--0-0-2--|
D|-0h2--0--0h2--0--0h2--0--0h2--0-0-0--|
A|-0h2--x--0h2--x--0h2--x--0h2--x-x-0--|
E|-0-0--3--0-0--3--0-0--3--0-0--3-3----|


Suggest correction
Give kudos to tab author, rate the tab!
1 2 3 4 5
comments
print report bad tab
guest
You may want to rate the tab now too:
select rating
Please do not post tabs as comments. Select "correction" instead!