Oops, an error
Loading. Please wait.

Nutshell chords

1,279 views 63 this week
no commentswrite comment
1 2 3 4 5
x 5
add to favorites
×
Save as Personal and add changes to this tab that will be seen only by you. Learn more ›
×
You can save this tab as Personal to edit and correct it or add notes. All changes will be seen only by you. Learn more »
launch autoscroll
font size
0
reset
transpose
0
reset
simplify chords
display chords
guitar tuner
edit
Autoscroll
slow
fast
+/-
esc
set tempo
stop
Strumming
There is no strumming pattern for this song yet. and get +5 IQ
Artist: City and Colour
Song: Nutshell (Alice in Chains cover)
TUNING: Standard (E A D G B e)
CAPO: 2nd fret

     Em    Cmaj7/G
e|---0--------0-------|
B|---0--------0-------|
G|---0--------0-------|
D|---2--------2-------|
A|---2--------3-------|
E|---0--------3-------|

[INTRO]
    Em   G    D    Cmaj7
e|------------------------------------------------------------0------|
B|------------3----------0--3p0------3p0------0h3--3/5--------0------|
G|--0---------2p0--0-----0------0-------0-----0--------0------0------|
D|--2----0----0----0h2---2--------------------2--------2------2------|
A|--2----0h2-------3-----3--------3-------3---3--------0h2----2------|
E|--0----3---------------------------------------------0---0--0------|

    Em   G    D         Cmaj7
e|---------------------------------------------------------------0---|
B|------------3----------0--3p0------3p0------0h3----------------0---|
G|--0---------2p0--------0------0-------0-----0-----------0------0---|
D|--2----0----0----------2--------------------2----2/4----0h2----2---|
A|--2----0h2-------3-----3--------3-------3---3----3/5----0h2----2---|
E|--0----3------------------------------------------------0---0--0---|

[VERSE]
Cmaj7/G             Em    G D
We chase misprinted lies
Cmaj7/G             Em   G D
We face the path of time
Cmaj7/G
And yet I fight

And yet I fight
                 Em   G D
This battle all alone
Cmaj7/G
No one to cry to
                 Em   G D
No place to call home

[INTERLUDE]
Cmaj7/G   Em    G D
Oooh... Oooh...
Cmaj7/G   Em    G D
Oooh... Oooh...

[VERSE]
Cmaj7/G            Em    G D
My gift of self is raped
Cmaj7/G       Em    G D
My privacy is raked
Cmaj7/G
And yet I find
And yet I find
                Em   G D
Repeating in my head
Cma7/G
If I can't be my own
                Em   G D
I'd feel better dead

[INTERLUDE]
Cmaj7/G   Em    G D
Oooh... Oooh...
Cmaj7/G   Em
Oooh... Oooh...

[OUTRO]
    Em   G    D    Cmaj7/G
e|------------------------------------------------------------0------|
B|------------3----------0----------------0------0------------0------|
G|--0---------2p0--0-----0--------0-------0------0-----0------0------|
D|--0h2--0----0----0h2---2--------2p0-----0h2----4-----0h2----2------|
A|--2----0h2-------3-----3-----------3----3------5-----2------2------|
E|--0----3---------3-----3-----------3----3------5-----0---0--0------|

    Em   G    D         Cmaj7
e|-------------------------------------------------------0---|
B|------------3----------0--3p0------3p0------0h3--5-----0---|
G|--0---------2p0--------0------0-------0-----0----------0---|
D|--0h2--0----0----------2--------------------2----------2---|
A|--2----0h2-------3-----3--------3-------3---3-------0--2---|
E|--0----3-----------------------------------------------0---|



************************************

| h  Hammer-on
| p  Pull-off
| /  Slide up

************************************
Suggest correction
Creating personal tab
Creating personal tab
You can edit any tab online and save it as your Personal.

You can edit, replace or remove any tab part or add personal notes – all changes will be seen only by you.

Personal tabs can be accessed anytime from any device, even offline.
Learn more »
comments
print report bad tab
guest
You may want to rate the tab now too:
select rating
Wanna post a correction for this tab? Suggest correction