Oops, an error
Loading. Please wait.

Paradise Tab

version 1
version 1

Whole song

23,187 views 30 this week
3 commentsread comments
1 2 3 4 5
x 23
add to favorites
launch autoscroll
font size
0
reset
how to read this tab
guitar tuner
×
Best way to learn
"Paradise"
Autoscroll
slow
fast
+/-
esc
set tempo
stop
Chords
C     - x32010
CM9   - x20010
Am    - x02210
CM9/G - 320010
F     - x33210
1/2  - Play chord for half a note


[Intro]
(Guitar 1)
C - CM9 - Am - CM9/G - C - CM9 - Am - CM9/G

(Guitar 2)
e|-------------------------------|
B|-------------------------------|
G|-------------------------------|
D|-----3~---5~-7p5---------------|
A|--3/5--5/7------7-5~-3-5p3-3~~-|
E|--------------------------5----|

e|---------------------------------------------|
B|---------------------------------------------|
G|---------------5-----------------------------|
D|-----3~---5-7---7-5---5-7--------------------|
A|--3/5--5/7---------5-7----5~-3-5/7-5\3-3~~---|
E|--------------------------------------5------|

[Verse]
C                   CM9    Am                CM9/G
 I'm looking for a way out, For a place that no one knows
C                 CM9    Am                    CM9/G
 Please take me away now, Somewhere that don't feel so cold
C         CM9      Am    CM9/G**
 Troubles on my mind,
C              CM9        Am   CM9/G
  For restful days I cry

[Chorus]                                                   1/2   1/2
F                    CM9/G             Am                Am   CM9/G
 I'm searching for a paradise, That I just can't seem to find
                                                         1/2   1/2
F                    CM9/G              Am               Am   CM9/G
 I'm searching for a paradise, For the time of my life
                                                        1/2   1/2
F                    CM9/G            Am                Am    CM9/G
I'm searching for a paradise, That I just can't seem to find
                                                         1/2
F                     CM9/G           Am                  Am
 I'm searching for a paradise, Gonna go where the spirit guides
 1/2
CM9/G
All alone

(Guitar 1)
C - CM9 - Am - CM9/G - C - CM9 - Am - CM9/G

(Guitar 2)
e|--------------------------------|
B|--------------------------------|
G|--------------------------------|
D|-----3~---5-7~~-5---------------|
A|--3/5--5/7-------7-5--3-5p3-3~~-|
E|---------------------------5----|

e|---------------------------------------------------|
B|-------------------5-------------------------------|
G|---------------5-----7-5---------------------------|
D|-----3~---5-7---7-5------7-5/7-------5-7p5---------|
A|--3/5--5/7---------------------5~-5h7------5\3~~~--|
E|---------------------------------------------------|

[Verse]
C                  CM9   Am                  CM9/G
 My silhouette is fading, Past the point of safe return
C              CM9    Am                        CM9/G
 Now my body's aching, There's both ends of the candle burned
C             CM9       Am    CM9/G
 My heart is beating slow,
C              CM9      Am   CM9/G
 It's worn me to the bone

[Chorus]                                                   1/2   1/2
F                    CM9/G             Am                Am   CM9/G
 I'm searching for a paradise, That I just can't seem to find
                                                         1/2   1/2
F                    CM9/G              Am               Am   CM9/G
 I'm searching for a paradise, For the time of my life
                                                        1/2   1/2
F                    CM9/G            Am                Am    CM9/G
I'm searching for a paradise, That I just can't seem to find
                                                         1/2         1/2
F                     CM9/G           Am                  Am        CM9/G
 I'm searching for a paradise, Gonna go where the spirit guides   All alone


All alone (x4)

(Guitar 1)
                 1/2   1/2
F - CM9/G - Am - Am - CM9/G  x4

(Guitar 2) 
(This part is just a guide)
    F        CM9/G       Am    Am(1/2)   CM9/G(1/2)
e|-----0--------------0----------0---------------------------|
B|----1-1------1-1p0-1-----1-0h1---0h1-------3---------------|
G|---2---2-------------------2-2-----2---------0-------------|
D|--3-----3---0----------2-----------------------------------|
A|-3---------2----------0-------------------2----------------|
E|----------3-----------------------------3------------------|

    F        CM9/G       Am    Am(1/2)   CM9/G(1/2)
e|-----0---------0---------------0---------------------------|
B|----1-1---------1--------1-0h1---0h1-------3-1-------------|
G|---2---2-----0---0---------2-2-----2-----------------------|
D|--3-----3---------0-----2----------------------------------|
A|-3---------2----------0-------------------2----------------|
E|----------3-----------------------------3------------------|(Repeat both)

                                                         1/2   1/2
F                    CM9/G             Am                Am   CM9/G
 I'm searching for a paradise, That I just can't seem to find
                                                      1/2   1/2
F                    CM9/G              Am            Am   CM9/G    C ~~~
 I'm searching for a paradise, For the time of my life



************************************

| p  Pull-off
| ~  Vibrato
| /  Slide up
| \  Slide down
| h  Hammer-on

 - A hammer on play during the first verse goes like this
    CM9/G**
e|----------------0----
B|---------1-1----1----
G|---------0-0----0----
D|----------2-----2----
A|----0h3-3-3--2h33----
E|-0h3-----------------

- During the CM9/G over Paradise in the chorus, it goes like this
  for all of them, and the ones during the All Alone x4 at the end:
e|-------
B|---01--
G|-0000--
D|-0000--
A|-2222--
E|-3333--

************************************
Suggest correction
comments
print report bad tab
3 comments total.
0 reply
Coonsy 10 Jun 11, 2013 05:57 PM

thanks, i havent been able to find many tabs for the new album!

+2 reply
elliott604 10 Sep 19, 2013 09:59 PM

I am not sure why the other Paradise tab is rated 5 stars. This tab is clearly superior. Great tab

+1 reply
sebastian.j.l.t 10 Feb 27, 2014 12:41 PM

Thanks for the great tab, pretty much perfect but i've figured out 3 notes that need changing to make it bang on for guitar part 2.

The intro for Guitar 2 - the second part should be

e|---------------------------------------------|
B|---------------------------------------------|
G|---------------54----------------------------|
D|-----3~---5-7-----5---5-7--------------------|
A|--3/5--5/7---------5-7----5~-3-5/7-5\3-3~~---|
E|--------------------------------------5------|

And very similar for the second time after the first chorus:
e|---------------------------------------------------|
B|-------------------5-------------------------------|
G|---------------54----7-54--------------------------|
D|-----3~---5-7-----5--------5/7-------5-7p5---------|
A|--3/5--5/7---------------------5~-5h7------5\3~~~--|
E|---------------------------------------------------|

essentially swapping out the 7's for a 4.
Fingers crossed that makes sense, it definitely sounds right played along to the track.

Again, thanks for the awesome tab in the first place!
Cheers!

guest
You may want to rate the tab now too:
select rating
Wanna post a correction for this tab? Suggest correction