Oops, an error
Loading. Please wait.

Rain tab

1,834 views 45 this week
1 commentread comment
1 2 3 4 5
x 3
add to favorites
×
Save as Personal and add changes to this tab that will be seen only by you. Learn more ›
×
You can save this tab as Personal to edit and correct it or add notes. All changes will be seen only by you. Learn more »
launch autoscroll
font size
0
reset
how to read this tab
guitar tuner
edit
Autoscroll
slow
fast
+/-
esc
set tempo
stop
Tuning: Eb Standard (Eb Ab Db Gb Bb Eb)

Tabbed for 2 guitars: (Gtr 1) and (Gtr 2)


(Gtr 1) - Dallas Green

[Intro]
D#|------------------------------------------------------------------|
A#|------------------1-------------------------------1---------------|
F#|------2-----4-----------4-----2-------2-----4-----------4---2-----|
C#|------------------------------------------------------------------|
G#|--0---0---0---0---0---0---0---0---0---0---0---0---0---0---0---0---|
D#|------------------------------------------------------------------|

D#|------------------------------------------------------------------|
A#|------------1-----------1-----------1-----------1-----------------|
F#|--------4---------4-----------0-----------4-----------2---2p0-----|
C#|------------------------------------------------------------------|
G#|------------------------------------------------------------------|
D#|--3---3---3---3---3---3---3---3---3---3---3---3---3---3---3---3---|

D#|------------------------------------------------------------------|
A#|------------------1-------------------------------3p1-------1-----|
F#|------2-----4-----------4-----2-------2-----4-----------4---------|
C#|------------------------------------------------------------------|
G#|--0---0---0---0---0---0---0---0---0---0---0---0---0---0---0---0---|
D#|------------------------------------------------------------------|

D#|------------------------------------------------------------------|
A#|------------1-----1h3---1-----1h3---1-----1h3---1-----------------|
F#|--4-----4---------------------------------------------2---2p0-----|
C#|------------------------------------------------------------------|
G#|------------------------------------------------------------------|
D#|--3---3---3---3---3---3---3---3---3---3---3---3---3---3---3---3---|

[Verse]
D#|------------------------------------------------------------------|
A#|------------------1-------------------------------1---------------|
F#|------2-----4-----------4-----2-------2-----2-----------2-----2---|
C#|------------------------------------------------------------------|
G#|--0---0---0---0---0---0---0---0---0---0---0---0---0---0---0---0---|
D#|------------------------------------------------------------------|

D#|------------------------------------------------------------------|
A#|------------------1-----------------------------------------------|
F#|------0-----4-----------4-----0-------0-----0-----0-----0-----0---|
C#|------------------------------------------------------------------|
G#|------------------------------------------------------------------|
D#|--3---3---3---3---3---3---3---3---3---3---3---3---3---3---3---3---|

D#|------------------------------------------------------------------|
A#|------------------1-----------------------------------------------|
F#|------2-----4-----------4-----2-----------------------------------|
C#|------------------------------------------------------------------|
G#|--0---0---0---0---0---0---0---0---0---0---0---0---0---0---0---0---|
D#|------------------------------------------------------------------|

D#|------------------------------------------------------------------|
A#|------------------1-----------------------------------------------|
F#|--------0---4-----------4-----0-------0---0-------0---0---0-------|
C#|------------------------------------------------------------------|
G#|------------------------------------------------------------------|
D#|--3---3---3---3---3---3---3---3---3---3---3---3---3---3---3---3---|

[Chorus]
D#|------------------------------------------------------------------|
A#|------------1-----------1-------------------1-----------1---------|
F#|------4-----------4-----------4-------4-----------4---------4-----|
C#|------------------------------------------------------------------|
G#|--0---0---0---0---0---0---0---0---0---0---0---0---0---0---0---0---|
D#|------------------------------------------------------------------|

D#|------------0-----------------------------------------------------|
A#|--------1---------3p1---1-----------1-----------1-----------------|
F#|--4---------------------------2-----------0h2---------2---2p0-----|
C#|------------------------------------------------------------------|
G#|------------------------------------------------------------------|
D#|--3---3---3---3---3---3---3---3---3---3---3---3---3---3---3---3---|

D#|------------------------------------------------------------------|
A#|------------1-----------1-------------------1-----------1---------|
F#|------4-----------4-----------4-------4-----------4---------4-----|
C#|------------------------------------------------------------------|
G#|--0---0---0---0---0---0---0---0---0---0---0---0---0---0---0---0---|
D#|------------------------------------------------------------------|

D#|------------0-----------------------------------------------------|
A#|--------1---------3p1---1-----------1-----------1-----------------|
F#|--4---------------------------0h2---------2-----------2---2p0-----|
C#|------------------------------------------------------------------|
G#|------------------------------------------------------------------|
D#|--3---3---3---3---3---3---3---3---3---3---3---3---3---3---3---3---|

[Interlude]
D#|--------0------------------------|
A#|------------1---------3----------|
F#|----------------------2----------|
C#|------------------0-------0------|
G#|--3---3---3---3------------------|
D#|-----------------------------3---|

D#|------------------------------------------------------------------|
A#|------------------1-------------------------------1---------------|
F#|------2-----4-----------4-----2-------2-----4-----------4---2-----|
C#|------------------------------------------------------------------|
G#|--0---0---0---0---0---0---0---0---0---0---0---0---0---0---0---0---|
D#|------------------------------------------------------------------|

D#|------------------------------------------------------------------|
A#|------------1-----1h3---1-----1h3---1-----1h3---1-----------------|
F#|--4-----4---------------------------------------------2---2p0-----|
C#|------------------------------------------------------------------|
G#|------------------------------------------------------------------|
D#|--3---3---3---3---3---3---3---3---3---3---3---3---3---3---3---3---|

D#|------------------------------------------------------------------|
A#|------------------1-------------------------------3p1-------1-----|
F#|------2-----4-----------4-----2-------2-----4-----------4---------|
C#|------------------------------------------------------------------|
G#|--0---0---0---0---0---0---0---0---0---0---0---0---0---0---0---0---|
D#|------------------------------------------------------------------|

D#|------------------------------------------------------------------|
A#|------------1-----1h3---1-----1h3---1-----1h3---1-----------------|
F#|--4-----4---------------------------------------------2---2p0-----|
C#|------------------------------------------------------------------|
G#|------------------------------------------------------------------|
D#|--3---3---3---3---3---3---3---3---3---3---3---3---3---3---3---3---|

[Verse]
D#|------------------------------------------------------------------|
A#|------------------1-------------------------------1---------------|
F#|------2-----4-----------4-----2-------2-----2-----------2---2-----|
C#|------------------------------------------------------------------|
G#|--0---0---0---0---0---0---0---0---0---0---0---0---0---0---0---0---|
D#|------------------------------------------------------------------|

D#|------------------------------------------------------------------|
A#|------------------1-------------------------------1---------------|
F#|--------0---4-----------4-----0-------------------------4-----0---|
C#|------------------------------------------------------------------|
G#|------------------------------------------------------------------|
D#|--3---3---3---3---3---3---3---3---3---3---3---3---3---3---3---3---|

D#|------------------------------------------------------------------|
A#|------------------1-------------------------------1---------------|
F#|------2-----4-----------4-----2-------2-----2-----------2-----2---|
C#|------------------------------------------------------------------|
G#|--0---0---0---0---0---0---0---0---0---0---0---0---0---0---0---0---|
D#|------------------------------------------------------------------|

D#|------------------------------------------------------------------|
A#|------------------1-----------------------------------------------|
F#|------0-----4-----------4-----0-------0-----0-----0-----0---------|
C#|------------------------------------------------------------------|
G#|------------------------------------------------------------------|
D#|--3---3---3---3---3---3---3---3---3---3---3---3---3---3---3---3---|

[Chorus]
D#|------------------------------------------------------------------|
A#|------------1-----------1-------------------1-----------1---------|
F#|------4-----------4-----------4-------4-----------4---------4-----|
C#|------------------------------------------------------------------|
G#|--0---0---0---0---0---0---0---0---0---0---0---0---0---0---0---0---|
D#|------------------------------------------------------------------|

D#|------------0-----------------------------------------------------|
A#|--------1---------3p1---1-----------1-----------1-----------------|
F#|--4---------------------------0h2---------2-----------2---2p0-----|
C#|------------------------------------------------------------------|
G#|------------------------------------------------------------------|
D#|--3---3---3---3---3---3---3---3---3---3---3---3---3---3---3---3---|

D#|------------------------------------------------------------------|
A#|------------1-----------1-------------------1-----------1---------|
F#|------4-----------4-----------4-------4-----------4---------4-----|
C#|------------------------------------------------------------------|
G#|--0---0---0---0---0---0---0---0---0---0---0---0---0---0---0---0---|
D#|------------------------------------------------------------------|

D#|------------0-----------------------------------------------------|
A#|--------1---------3p1---1-----------1-----------1-----------------|
F#|--4---------------------------0h2---------0h2---------2---2p0-----|
C#|------------------------------------------------------------------|
G#|------------------------------------------------------------------|
D#|--3---3---3---3---3---3---3---3---3---3---3---3---3---3---3---3---|

[Interlude]
D#|--------0------------------------|
A#|------------1---------3----------|
F#|----------------------2----------|
C#|------------------0-------0------|
G#|--3---3---3---3------------------|
D#|-----------------------------3---|

D#|------------------------------------------------------------------|
A#|------------------1-------------------------------1---------------|
F#|------2-----4-----------4-----2-------2-----4-----------4---2-----|
C#|------------------------------------------------------------------|
G#|--0---0---0---0---0---0---0---0---0---0---0---0---0---0---0---0---|
D#|------------------------------------------------------------------|

D#|------------------------------------------------------------------|
A#|------------1-----1h3---1-----1h3---1-----1h3---1-----------------|
F#|--4-----4---------------------------------------------2---2p0-----|
C#|------------------------------------------------------------------|
G#|------------------------------------------------------------------|
D#|--3---3---3---3---3---3---3---3---3---3---3---3---3---3---3---3---|

D#|------------------------------------------------------------------|
A#|------------------1-------------------------------3p1-------1-----|
F#|------2-----4-----------4-----2-------2-----4-----------4---------|
C#|------------------------------------------------------------------|
G#|--0---0---0---0---0---0---0---0---0---0---0---0---0---0---0---0---|
D#|------------------------------------------------------------------|

D#|------------------------------------------------------------------|
A#|------------1-----1h3---1-----1h3---1-----1h3---1-----------------|
F#|--4-----4---------------------------------------------2---2p0-----|
C#|------------------------------------------------------------------|
G#|------------------------------------------------------------------|
D#|--3---3---3---3---3---3---3---3---3---3---3---3---3---3---3---3---|

[Bridge]
D#|------------------------------------------------------------------|
A#|------------------------------------------------------------------|
F#|------------------------------------------------------------------|  (x2)
C#|------------------------------------------------------------------|
G#|-0-0-0-0-0-0-0-0-0-0-0-0-0-0-0-0----------------------------------|
D#|---------------------------------3-3-3-3-3-3-3-3-3-3-3-3-3-3-3-3--|

[Chorus]
D#|------------------------------------------------------------------|
A#|------------1-----------1-------------------1-----------1---------|
F#|------4-----------4-----------4-------4-----------4---------4-----|
C#|------------------------------------------------------------------|
G#|--0---0---0---0---0---0---0---0---0---0---0---0---0---0---0---0---|
D#|------------------------------------------------------------------|

D#|------------0-----------------------------------------------------|
A#|--------1---------3p1---1-----------1-----------1-----------------|
F#|--4---------------------------0h2---------2-----------2---2p0-----|
C#|------------------------------------------------------------------|
G#|------------------------------------------------------------------|
D#|--3---3---3---3---3---3---3---3---3---3---3---3---3---3---3---3---|

D#|------------------------------------------------------------------|
A#|------------1-----------1-------------------1-----------1---------|
F#|------4-----------4-----------4-------4-----------4---------4-----|
C#|------------------------------------------------------------------|
G#|--0---0---0---0---0---0---0---0---0---0---0---0---0---0---0---0---|
D#|------------------------------------------------------------------|

D#|------------0-----------------------------------------------------|
A#|--------1---------3p1---1-----------1-----------1-----------------|
F#|--4---------------------------0h2---------0h2---------2---2p0-----|
C#|------------------------------------------------------------------|
G#|------------------------------------------------------------------|
D#|--3---3---3---3---3---3---3---3---3---3---3---3---3---3---3---3---|

D#|------------------------------------------------------------------|
A#|------------1-----------1-------------------1-----------1---------|
F#|------4-----------4-----------4-------4-----------4---------4-----|
C#|------------------------------------------------------------------|
G#|--0---0---0---0---0---0---0---0---0---0---0---0---0---0---0---0---|
D#|------------------------------------------------------------------|

D#|------------0-----------------------------------------------------|
A#|--------1---------3p1---1-----------1-----------1-----------------|
F#|--4---------------------------0h2---------0h2---------2---2p0-----|
C#|------------------------------------------------------------------|
G#|------------------------------------------------------------------|
D#|--3---3---3---3---3---3---3---3---3---3---3---3---3---3---3---3---|

D#|------------------------------------------------------------------|
A#|------------1-----------1-------------------1-----------1---------|
F#|------4-----------4-----------4-------4-----------4---------4-----|
C#|------------------------------------------------------------------|
G#|--0---0---0---0---0---0---0---0---0---0---0---0---0---0---0---0---|
D#|------------------------------------------------------------------|

D#|------------0-----------------------------------------------------|
A#|--------1---------3p1---1-----------1-----------1-----------1-----|
F#|--4---------------------------0h2---------0h2---------0h2---------|
C#|------------------------------------------------------------------|
G#|------------------------------------------------------------------|
D#|--3---3---3---3---3---3---3---3---3---3---3---3---3---3---3---3---|

[Outro]
D#|--------0------------------------0---|
A#|------------1---------3----------1---|
F#|----------------------2----------2---|
C#|------------------0-------0------2---|
G#|--3---3---3---3------------------0---|
D#|-----------------------------3-------|


(Gtr 2) - Matt Kelly

[Intro]
D#|---0----3----5----3----0-------0----3-----5-----3--0----|
A#|--------------------------------------------------------|
C#|--------------------------------------------------------|
C#|--------------------------------------------------------|
G#|--------------------------------------------------------|
D#|--------------------------------------------------------|

D#|---0----3--5---------3---------3-----5-----3------------|
A#|----------------3---------3---------------------3--3p1--|
C#|--------------------------------------------------------|
C#|--------------------------------------------------------|
G#|--------------------------------------------------------|
D#|--------------------------------------------------------|

D#|---0----3----5----3----0-------0----3-----5-----3--0----|
A#|--------------------------------------------------------|
C#|--------------------------------------------------------|
C#|--------------------------------------------------------|
G#|--------------------------------------------------------|
D#|--------------------------------------------------------|

D#|---0----3--5----3----5----3----5----3----5----3--3------|
A#|-------------------------------------------------3p1----|
C#|--------------------------------------------------------|
C#|--------------------------------------------------------|
G#|--------------------------------------------------------|
D#|--------------------------------------------------------|

[Verse]
D#|---0----3----5----3----0------0----0----0----0----0---0-|
A#|--------------------------------------------------------|
C#|--------------------------------------------------------|
C#|--------------------------------------------------------|
G#|--------------------------------------------------------|
D#|--------------------------------------------------------|

D#|---0----3----5----3-------------------------------------|
A#|-----------------------3------3----3----3------3p1------|
C#|--------------------------------------------------------|
C#|--------------------------------------------------------|
G#|--------------------------------------------------------|
D#|--------------------------------------------------------|

D#|---0----3----5----3----0------0----3----5-------3-------|
A#|--------------------------------------------------------|
C#|--------------------------------------------------------|
C#|--------------------------------------------------------|
G#|--------------------------------------------------------|
D#|--------------------------------------------------------|

D#|--0----3--5---------3---------3-------------------------|
A#|---------------3---------3---------3-------3--3--3p1----|
C#|--------------------------------------------------------|
C#|--------------------------------------------------------|
G#|--------------------------------------------------------|
D#|--------------------------------------------------------|

[Chorus]
D#|--------------5---------------------------5-----------|
A#|---3-----5----------5----3------3----5---------5--3---|
C#|------------------------------------------------------|
C#|------------------------------------------------------|
G#|------------------------------------------------------|
D#|------------------------------------------------------|

D#|-----------3----3p0------------3---------0------------|
A#|---x----3------------5----3---------3---------3--3p1--|
C#|------------------------------------------------------|
C#|------------------------------------------------------|
G#|------------------------------------------------------|
D#|------------------------------------------------------|

D#|--------------5---------------------------5-----------|
A#|---3-----5----------5----3------3----5---------5--3---|
C#|------------------------------------------------------|
C#|------------------------------------------------------|
G#|------------------------------------------------------|
D#|------------------------------------------------------|

D#|---------3----3p0--------------3---------0------------|
A#|-x----3------------5----1h3---------3---------3--3p1--|
C#|------------------------------------------------------|
C#|------------------------------------------------------|
G#|------------------------------------------------------|
D#|------------------------------------------------------|

[Interlude]
D#|-------------------------|
A#|---1-----1/3----3p1------|
C#|---------------------2---|
C#|-------------------------|
G#|-------------------------|
D#|-------------------------|

D#|---0----3----5----3----0-------0----3-----5-----3--0----|
A#|--------------------------------------------------------|
C#|--------------------------------------------------------|
C#|--------------------------------------------------------|
G#|--------------------------------------------------------|
D#|--------------------------------------------------------|

D#|---0----3--5----3----5----3----5----3----5----3--3------|
A#|-------------------------------------------------3p1----|
C#|--------------------------------------------------------|
C#|--------------------------------------------------------|
G#|--------------------------------------------------------|
D#|--------------------------------------------------------|

D#|---0----3----5----3----0-------0----3-----5-----3--0----|
A#|--------------------------------------------------------|
C#|--------------------------------------------------------|
C#|--------------------------------------------------------|
G#|--------------------------------------------------------|
D#|--------------------------------------------------------|

D#|---0----3--5----3----5----3----5----3----5----3--3------|
A#|-------------------------------------------------3p1----|
C#|--------------------------------------------------------|
C#|--------------------------------------------------------|
G#|--------------------------------------------------------|
D#|--------------------------------------------------------|

[Verse]
D#|---0----3----5----3----0------0----0----0----0--0-------|
A#|--------------------------------------------------------|
C#|--------------------------------------------------------|
C#|--------------------------------------------------------|
G#|--------------------------------------------------------|
D#|--------------------------------------------------------|

D#|---0----3--5--------------------------------------------|
A#|----------------3----3----3----3----3----3----3--3p1----|
C#|--------------------------------------------------------|
C#|--------------------------------------------------------|
G#|--------------------------------------------------------|
D#|--------------------------------------------------------|

D#|---0----3----5----3----0------0----0----0----0----0-----|
A#|--------------------------------------------------------|
C#|--------------------------------------------------------|
C#|--------------------------------------------------------|
G#|--------------------------------------------------------|
D#|--------------------------------------------------------|

D#|---0----3----5----3-------------------------------------|
A#|-----------------------3------3----3----3--3--3p1-------|
C#|--------------------------------------------------------|
C#|--------------------------------------------------------|
G#|--------------------------------------------------------|
D#|--------------------------------------------------------|

[Chorus]
D#|--------------5---------------------------5-------------|
A#|---3-----5----------5----3------3----5---------5--3-----|
C#|--------------------------------------------------------|
C#|--------------------------------------------------------|
G#|--------------------------------------------------------|
D#|--------------------------------------------------------|

D#|-----------3----3p0---3----------3---------0------------|
A#|---x----3-----------------1h3---------3---------3--3p1--|
C#|--------------------------------------------------------|
C#|--------------------------------------------------------|
G#|--------------------------------------------------------|
D#|--------------------------------------------------------|

D#|--------------5---------------------------5-------------|
A#|---3-----5----------5----3------3----5---------5--3-----|
C#|--------------------------------------------------------|
C#|--------------------------------------------------------|
G#|--------------------------------------------------------|
D#|--------------------------------------------------------|

D#|-----------3----3p0--------------3----------0-----------|
A#|---x----3-------------5---1h3---------1h3-------3--3p1--|
C#|--------------------------------------------------------|
C#|--------------------------------------------------------|
G#|--------------------------------------------------------|
D#|--------------------------------------------------------|

[Interlude]
D#|-------------------------|
A#|---1-----1/3----3p1------|
C#|---------------------2---|
C#|-------------------------|
G#|-------------------------|
D#|-------------------------|

D#|---0----3----5----3----0-------0----3-----5-----3--0----|
A#|--------------------------------------------------------|
C#|--------------------------------------------------------|
C#|--------------------------------------------------------|
G#|--------------------------------------------------------|
D#|--------------------------------------------------------|

D#|---0----3--5---------3---------3---------3--------------|
A#|----------------1h3-------1h3-------1h3-------3--3p1----|
C#|--------------------------------------------------------|
C#|--------------------------------------------------------|
G#|--------------------------------------------------------|
D#|--------------------------------------------------------|

D#|---0----3----5----3----0-------0----3-----5-----3--0----|
A#|--------------------------------------------------------|
C#|--------------------------------------------------------|
C#|--------------------------------------------------------|
G#|--------------------------------------------------------|
D#|--------------------------------------------------------|

D#|---0----3--5----------------3----5----3-----------------|
A#|----------------1h3----3-------------------3----3--3p1--|
C#|--------------------------------------------------------|
C#|--------------------------------------------------------|
G#|--------------------------------------------------------|
D#|--------------------------------------------------------|

[Bridge]
No guitar

[Chorus]
D#|--------------5---------------------------5-------------|
A#|---3-----5----------5----3------3----5---------5--3-----|
C#|--------------------------------------------------------|
C#|--------------------------------------------------------|
G#|--------------------------------------------------------|
D#|--------------------------------------------------------|

D#|-----------3----3p0---3----------3---------3------------|
A#|---x----3-----------------1h3---------3---------3--3p1--|
C#|--------------------------------------------------------|
C#|--------------------------------------------------------|
G#|--------------------------------------------------------|
D#|--------------------------------------------------------|

D#|--------------5---------------------------5-------------|
A#|---3-----5----------5----3------3----5---------5--3-----|
C#|--------------------------------------------------------|
C#|--------------------------------------------------------|
G#|--------------------------------------------------------|
D#|--------------------------------------------------------|

D#|-----------3----3p0---3----------3----------0-----------|
A#|---x----3-----------------1h3---------1h3-------3--3p1--|
C#|--------------------------------------------------------|
C#|--------------------------------------------------------|
G#|--------------------------------------------------------|
D#|--------------------------------------------------------|

D#|--------------5---------------------------5-------------|
A#|---3-----5----------5----3------3----5---------5--3-----|
C#|--------------------------------------------------------|
C#|--------------------------------------------------------|
G#|--------------------------------------------------------|
D#|--------------------------------------------------------|

D#|-----------3----3p0---3----------3----------3-----------|
A#|---x----3-----------------1h3---------1h3-------3--3p1--|
C#|--------------------------------------------------------|
C#|--------------------------------------------------------|
G#|--------------------------------------------------------|
D#|--------------------------------------------------------|

D#|--------------5---------------------------5-------------|
A#|---3-----5----------5----3------3----5---------5--3-----|
C#|--------------------------------------------------------|
C#|--------------------------------------------------------|
G#|--------------------------------------------------------|
D#|--------------------------------------------------------|

D#|-----------3----3p0---3----------3----------3-----------|
A#|---x----3-----------------1h3---------1h3-------3--3----|
C#|--------------------------------------------------------|
C#|--------------------------------------------------------|
G#|--------------------------------------------------------|
D#|--------------------------------------------------------|

[Outro]
D#|-------------------------|
A#|---1-----1/3----3p1------|
C#|---------------------2---|
C#|-------------------------|
G#|-------------------------|
D#|-------------------------|


************************************

| /  Slide
| p  Pull-off
| h  Hammer-on
| x  Dead note

************************************

            
            
Suggest correction
Creating personal tab
Creating personal tab
You can edit any tab online and save it as your Personal.

You can edit, replace or remove any tab part or add personal notes – all changes will be seen only by you.

Personal tabs can be accessed anytime from any device, even offline.
Learn more »
Give kudos to tab author, rate the tab!
1 2 3 4 5
comments
print report bad tab
1 comment total.
+1 reply
jwiseman 10 Jul 16, 2017 03:14 AM

👌👌👌

guest
You may want to rate the tab now too:
select rating
Wanna post a correction for this tab? Suggest correction